  0
SECTION
  2
HEADER
  9
$ACADVER
  1
AC1024
  9
$ACADMAINTVER
 70
     6
  9
$DWGCODEPAGE
  3
ANSI_1252
  9
$INSBASE
 10
0.0
 20
0.0
 30
0.0
  9
$EXTMIN
 10
1.000000000000000E+20
 20
1.000000000000000E+20
 30
1.000000000000000E+20
  9
$EXTMAX
 10
-1.000000000000000E+20
 20
-1.000000000000000E+20
 30
-1.000000000000000E+20
  9
$LIMMIN
 10
0.0
 20
0.0
  9
$LIMMAX
 10
12.0
 20
9.0
  9
$ORTHOMODE
 70
     0
  9
$REGENMODE
 70
     1
  9
$FILLMODE
 70
     1
  9
$QTEXTMODE
 70
     0
  9
$MIRRTEXT
 70
     1
  9
$LTSCALE
 40
1.0
  9
$ATTMODE
 70
     1
  9
$TEXTSIZE
 40
0.2
  9
$TRACEWID
 40
0.05
  9
$TEXTSTYLE
  7
Standard
  9
$CLAYER
  8
0
  9
$CELTYPE
  6
ByLayer
  9
$CECOLOR
 62
   256
  9
$CELTSCALE
 40
1.0
  9
$DISPSILH
 70
     0
  9
$DIMSCALE
 40
1.0
  9
$DIMASZ
 40
0.18
  9
$DIMEXO
 40
0.0625
  9
$DIMDLI
 40
0.38
  9
$DIMRND
 40
0.0
  9
$DIMDLE
 40
0.0
  9
$DIMEXE
 40
0.18
  9
$DIMTP
 40
0.0
  9
$DIMTM
 40
0.0
  9
$DIMTXT
 40
0.18
  9
$DIMCEN
 40
0.09
  9
$DIMTSZ
 40
0.0
  9
$DIMTOL
 70
     0
  9
$DIMLIM
 70
     0
  9
$DIMTIH
 70
     1
  9
$DIMTOH
 70
     1
  9
$DIMSE1
 70
     0
  9
$DIMSE2
 70
     0
  9
$DIMTAD
 70
     0
  9
$DIMZIN
 70
     0
  9
$DIMBLK
  1

  9
$DIMASO
 70
     1
  9
$DIMSHO
 70
     1
  9
$DIMPOST
  1

  9
$DIMAPOST
  1

  9
$DIMALT
 70
     0
  9
$DIMALTD
 70
     2
  9
$DIMALTF
 40
25.4
  9
$DIMLFAC
 40
1.0
  9
$DIMTOFL
 70
     0
  9
$DIMTVP
 40
0.0
  9
$DIMTIX
 70
     0
  9
$DIMSOXD
 70
     0
  9
$DIMSAH
 70
     0
  9
$DIMBLK1
  1

  9
$DIMBLK2
  1

  9
$DIMSTYLE
  2
Standard
  9
$DIMCLRD
 70
     0
  9
$DIMCLRE
 70
     0
  9
$DIMCLRT
 70
     0
  9
$DIMTFAC
 40
1.0
  9
$DIMGAP
 40
0.09
  9
$DIMJUST
 70
     0
  9
$DIMSD1
 70
     0
  9
$DIMSD2
 70
     0
  9
$DIMTOLJ
 70
     1
  9
$DIMTZIN
 70
     0
  9
$DIMALTZ
 70
     0
  9
$DIMALTTZ
 70
     0
  9
$DIMUPT
 70
     0
  9
$DIMDEC
 70
     4
  9
$DIMTDEC
 70
     4
  9
$DIMALTU
 70
     2
  9
$DIMALTTD
 70
     2
  9
$DIMTXSTY
  7
Standard
  9
$DIMAUNIT
 70
     0
  9
$DIMADEC
 70
     0
  9
$DIMALTRND
 40
0.0
  9
$DIMAZIN
 70
     0
  9
$DIMDSEP
 70
    46
  9
$DIMATFIT
 70
     3
  9
$DIMFRAC
 70
     0
  9
$DIMLDRBLK
  1

  9
$DIMLUNIT
 70
     2
  9
$DIMLWD
 70
    -2
  9
$DIMLWE
 70
    -2
  9
$DIMTMOVE
 70
     0
  9
$DIMFXL
 40
1.0
  9
$DIMFXLON
 70
     0
  9
$DIMJOGANG
 40
0.7853981633974483
  9
$DIMTFILL
 70
     0
  9
$DIMTFILLCLR
 70
     0
  9
$DIMARCSYM
 70
     0
  9
$DIMLTYPE
  6

  9
$DIMLTEX1
  6

  9
$DIMLTEX2
  6

  9
$DIMTXTDIRECTION
 70
     0
  9
$LUNITS
 70
     2
  9
$LUPREC
 70
     4
  9
$SKETCHINC
 40
0.1
  9
$FILLETRAD
 40
0.5
  9
$AUNITS
 70
     0
  9
$AUPREC
 70
     0
  9
$MENU
  1
.
  9
$ELEVATION
 40
0.0
  9
$PELEVATION
 40
0.0
  9
$THICKNESS
 40
0.0
  9
$LIMCHECK
 70
     0
  9
$CHAMFERA
 40
0.5
  9
$CHAMFERB
 40
0.5
  9
$CHAMFERC
 40
1.0
  9
$CHAMFERD
 40
0.0
  9
$SKPOLY
 70
     0
  9
$TDCREATE
 40
2457123.472070046
  9
$TDUCREATE
 40
2457123.076236713
  9
$TDUPDATE
 40
2457123.472070764
  9
$TDUUPDATE
 40
2457123.07623743
  9
$TDINDWG
 40
0.0000000116
  9
$TDUSRTIMER
 40
0.0000000116
  9
$USRTIMER
 70
     1
  9
$ANGBASE
 50
0.0
  9
$ANGDIR
 70
     0
  9
$PDMODE
 70
     0
  9
$PDSIZE
 40
0.0
  9
$PLINEWID
 40
0.0
  9
$SPLFRAME
 70
     0
  9
$SPLINETYPE
 70
     6
  9
$SPLINESEGS
 70
     8
  9
$HANDSEED
  5
40B
  9
$SURFTAB1
 70
     6
  9
$SURFTAB2
 70
     6
  9
$SURFTYPE
 70
     6
  9
$SURFU
 70
     6
  9
$SURFV
 70
     6
  9
$UCSBASE
  2

  9
$UCSNAME
  2

  9
$UCSORG
 10
0.0
 20
0.0
 30
0.0
  9
$UCSXDIR
 10
1.0
 20
0.0
 30
0.0
  9
$UCSYDIR
 10
0.0
 20
1.0
 30
0.0
  9
$UCSORTHOREF
  2

  9
$UCSORTHOVIEW
 70
     0
  9
$UCSORGTOP
 10
0.0
 20
0.0
 30
0.0
  9
$UCSORGBOTTOM
 10
0.0
 20
0.0
 30
0.0
  9
$UCSORGLEFT
 10
0.0
 20
0.0
 30
0.0
  9
$UCSORGRIGHT
 10
0.0
 20
0.0
 30
0.0
  9
$UCSORGFRONT
 10
0.0
 20
0.0
 30
0.0
  9
$UCSORGBACK
 10
0.0
 20
0.0
 30
0.0
  9
$PUCSBASE
  2

  9
$PUCSNAME
  2

  9
$PUCSORG
 10
0.0
 20
0.0
 30
0.0
  9
$PUCSXDIR
 10
1.0
 20
0.0
 30
0.0
  9
$PUCSYDIR
 10
0.0
 20
1.0
 30
0.0
  9
$PUCSORTHOREF
  2

  9
$PUCSORTHOVIEW
 70
     0
  9
$PUCSORGTOP
 10
0.0
 20
0.0
 30
0.0
  9
$PUCSORGBOTTOM
 10
0.0
 20
0.0
 30
0.0
  9
$PUCSORGLEFT
 10
0.0
 20
0.0
 30
0.0
  9
$PUCSORGRIGHT
 10
0.0
 20
0.0
 30
0.0
  9
$PUCSORGFRONT
 10
0.0
 20
0.0
 30
0.0
  9
$PUCSORGBACK
 10
0.0
 20
0.0
 30
0.0
  9
$USERI1
 70
     0
  9
$USERI2
 70
     0
  9
$USERI3
 70
     0
  9
$USERI4
 70
     0
  9
$USERI5
 70
     0
  9
$USERR1
 40
0.0
  9
$USERR2
 40
0.0
  9
$USERR3
 40
0.0
  9
$USERR4
 40
0.0
  9
$USERR5
 40
0.0
  9
$WORLDVIEW
 70
     1
  9
$SHADEDGE
 70
     3
  9
$SHADEDIF
 70
    70
  9
$TILEMODE
 70
     1
  9
$MAXACTVP
 70
    64
  9
$PINSBASE
 10
0.0
 20
0.0
 30
0.0
  9
$PLIMCHECK
 70
     0
  9
$PEXTMIN
 10
1.000000000000000E+20
 20
1.000000000000000E+20
 30
1.000000000000000E+20
  9
$PEXTMAX
 10
-1.000000000000000E+20
 20
-1.000000000000000E+20
 30
-1.000000000000000E+20
  9
$PLIMMIN
 10
0.0
 20
0.0
  9
$PLIMMAX
 10
12.0
 20
9.0
  9
$UNITMODE
 70
     0
  9
$VISRETAIN
 70
     1
  9
$PLINEGEN
 70
     0
  9
$PSLTSCALE
 70
     1
  9
$TREEDEPTH
 70
  3020
  9
$CMLSTYLE
  2
Standard
  9
$CMLJUST
 70
     0
  9
$CMLSCALE
 40
1.0
  9
$PROXYGRAPHICS
 70
     1
  9
$MEASUREMENT
 70
     0
  9
$CELWEIGHT
370
    -1
  9
$ENDCAPS
280
     0
  9
$JOINSTYLE
280
     0
  9
$LWDISPLAY
290
     1
  9
$INSUNITS
 70
     1
  9
$HYPERLINKBASE
  1

  9
$STYLESHEET
  1

  9
$XEDIT
290
     1
  9
$CEPSNTYPE
380
     0
  9
$PSTYLEMODE
290
     1
  9
$FINGERPRINTGUID
  2
{17C97237-A0EA-4EFB-B358-6E449F787E51}
  9
$VERSIONGUID
  2
{FAEB1C32-E019-11D5-929B-00C0DF256EC4}
  9
$EXTNAMES
290
     1
  9
$PSVPSCALE
 40
0.0
  9
$OLESTARTUP
290
     0
  9
$SORTENTS
280
   127
  9
$INDEXCTL
280
     0
  9
$HIDETEXT
280
     1
  9
$XCLIPFRAME
280
     2
  9
$HALOGAP
280
     0
  9
$OBSCOLOR
 70
   257
  9
$OBSLTYPE
280
     0
  9
$INTERSECTIONDISPLAY
280
     0
  9
$INTERSECTIONCOLOR
 70
   257
  9
$DIMASSOC
280
     2
  9
$PROJECTNAME
  1

  9
$CAMERADISPLAY
290
     0
  9
$LENSLENGTH
 40
50.0
  9
$CAMERAHEIGHT
 40
0.0
  9
$STEPSPERSEC
 40
2.0
  9
$STEPSIZE
 40
6.0
  9
$3DDWFPREC
 40
2.0
  9
$PSOLWIDTH
 40
0.25
  9
$PSOLHEIGHT
 40
4.0
  9
$LOFTANG1
 40
1.570796326794897
  9
$LOFTANG2
 40
1.570796326794897
  9
$LOFTMAG1
 40
0.0
  9
$LOFTMAG2
 40
0.0
  9
$LOFTPARAM
 70
     7
  9
$LOFTNORMALS
280
     1
  9
$LATITUDE
 40
37.795
  9
$LONGITUDE
 40
-122.394
  9
$NORTHDIRECTION
 40
0.0
  9
$TIMEZONE
 70
 -8000
  9
$LIGHTGLYPHDISPLAY
280
     1
  9
$TILEMODELIGHTSYNCH
280
     1
  9
$CMATERIAL
347
3C
  9
$SOLIDHIST
280
     1
  9
$SHOWHIST
280
     1
  9
$DWFFRAME
280
     2
  9
$DGNFRAME
280
     2
  9
$REALWORLDSCALE
290
     1
  9
$INTERFERECOLOR
 62
   256
  9
$CSHADOW
280
     0
  9
$SHADOWPLANELOCATION
 40
0.0
  0
ENDSEC
  0
SECTION
  2
CLASSES
  0
CLASS
  1
ACDBDICTIONARYWDFLT
  2
AcDbDictionaryWithDefault
  3
ObjectDBX Classes
 90
        0
 91
        4
280
     0
281
     0
  0
CLASS
  1
VISUALSTYLE
  2
AcDbVisualStyle
  3
ObjectDBX Classes
 90
     4095
 91
        4
280
     0
281
     0
  0
CLASS
  1
MATERIAL
  2
AcDbMaterial
  3
ObjectDBX Classes
 90
     1153
 91
        4
280
     0
281
     0
  0
CLASS
  1
SUN
  2
AcDbSun
  3
SCENEOE
 90
     1024
 91
        4
280
     0
281
     0
  0
ENDSEC
  0
SECTION
  2
TABLES
  0
TABLE
  2
VPORT
  5
8
330
0
100
AcDbSymbolTable
 70
     1
  0
VPORT
  5
29
330
8
100
AcDbSymbolTableRecord
100
AcDbViewportTableRecord
  2
*Active
 70
     0
 10
0.0
 20
0.0
 11
1.0
 21
1.0
 12
0.0
 22
0.0
 13
0.0
 23
0.0
 14
0.5
 24
0.5
 15
0.5
 25
0.5
 16
0.0
 26
0.0
 36
1.0
 17
185.3285775925568
 27
101.8260070578769
 37
0.0
 40
593.9999195737223
 41
1.415825399445165
 42
50.0
 43
0.0
 44
0.0
 50
0.0
 51
0.0
 71
     0
 72
   100
 73
     1
 74
     3
 75
     0
 76
     0
 77
     0
 78
     0
281
     0
 65
     1
110
0.0
120
0.0
130
0.0
111
1.0
121
0.0
131
0.0
112
0.0
122
1.0
132
0.0
 79
     0
146
0.0
 60
     3
 61
     5
292
     1
282
     1
141
0.0
142
0.0
 63
   250
361
3F
  0
ENDTAB
  0
TABLE
  2
LTYPE
  5
5
330
0
100
AcDbSymbolTable
 70
    10
  0
LTYPE
  5
14
330
5
100
AcDbSymbolTableRecord
100
AcDbLinetypeTableRecord
  2
ByBlock
 70
     0
  3

 72
    65
 73
     0
 40
0.0
  0
LTYPE
  5
15
330
5
100
AcDbSymbolTableRecord
100
AcDbLinetypeTableRecord
  2
ByLayer
 70
     0
  3

 72
    65
 73
     0
 40
0.0
  0
LTYPE
  5
16
330
5
100
AcDbSymbolTableRecord
100
AcDbLinetypeTableRecord
  2
Continuous
 70
     0
  3
Solid line
 72
    65
 73
     0
 40
0.0
  0
LTYPE
  5
125
330
5
100
AcDbSymbolTableRecord
100
AcDbLinetypeTableRecord
  2
AI-Linetype-1
 70
     0
  3
Adobe Illustrator Linetype No. 1
 72
    65
 73
     6
 40
11.99999982613335
 49
1.000000027565501
 74
     0
 49
-2.99999991447895
 74
     0
 49
1.000000027565501
 74
     0
 49
-2.99999991447895
 74
     0
 49
1.000000027565501
 74
     0
 49
-2.99999991447895
 74
     0
  0
LTYPE
  5
198
330
5
100
AcDbSymbolTableRecord
100
AcDbLinetypeTableRecord
  2
AI-Linetype-2
 70
     0
  3
Adobe Illustrator Linetype No. 2
 72
    65
 73
     6
 40
11.99999982613335
 49
1.000000027565501
 74
     0
 49
-2.99999991447895
 74
     0
 49
1.000000027565501
 74
     0
 49
-2.99999991447895
 74
     0
 49
1.000000027565501
 74
     0
 49
-2.99999991447895
 74
     0
  0
LTYPE
  5
19B
330
5
100
AcDbSymbolTableRecord
100
AcDbLinetypeTableRecord
  2
AI-Linetype-3
 70
     0
  3
Adobe Illustrator Linetype No. 3
 72
    65
 73
     6
 40
11.99999982613335
 49
1.000000027565501
 74
     0
 49
-2.99999991447895
 74
     0
 49
1.000000027565501
 74
     0
 49
-2.99999991447895
 74
     0
 49
1.000000027565501
 74
     0
 49
-2.99999991447895
 74
     0
  0
LTYPE
  5
19F
330
5
100
AcDbSymbolTableRecord
100
AcDbLinetypeTableRecord
  2
AI-Linetype-4
 70
     0
  3
Adobe Illustrator Linetype No. 4
 72
    65
 73
     6
 40
11.99999982613335
 49
1.000000027565501
 74
     0
 49
-2.99999991447895
 74
     0
 49
1.000000027565501
 74
     0
 49
-2.99999991447895
 74
     0
 49
1.000000027565501
 74
     0
 49
-2.99999991447895
 74
     0
  0
LTYPE
  5
1A2
330
5
100
AcDbSymbolTableRecord
100
AcDbLinetypeTableRecord
  2
AI-Linetype-5
 70
     0
  3
Adobe Illustrator Linetype No. 5
 72
    65
 73
     6
 40
11.99999982613335
 49
1.000000027565501
 74
     0
 49
-2.99999991447895
 74
     0
 49
1.000000027565501
 74
     0
 49
-2.99999991447895
 74
     0
 49
1.000000027565501
 74
     0
 49
-2.99999991447895
 74
     0
  0
LTYPE
  5
1A6
330
5
100
AcDbSymbolTableRecord
100
AcDbLinetypeTableRecord
  2
AI-Linetype-6
 70
     0
  3
Adobe Illustrator Linetype No. 6
 72
    65
 73
     6
 40
11.99999982613335
 49
1.000000027565501
 74
     0
 49
-2.99999991447895
 74
     0
 49
1.000000027565501
 74
     0
 49
-2.99999991447895
 74
     0
 49
1.000000027565501
 74
     0
 49
-2.99999991447895
 74
     0
  0
LTYPE
  5
1A9
330
5
100
AcDbSymbolTableRecord
100
AcDbLinetypeTableRecord
  2
AI-Linetype-7
 70
     0
  3
Adobe Illustrator Linetype No. 7
 72
    65
 73
     6
 40
11.99999982613335
 49
1.000000027565501
 74
     0
 49
-2.99999991447895
 74
     0
 49
1.000000027565501
 74
     0
 49
-2.99999991447895
 74
     0
 49
1.000000027565501
 74
     0
 49
-2.99999991447895
 74
     0
  0
LTYPE
  5
1AD
330
5
100
AcDbSymbolTableRecord
100
AcDbLinetypeTableRecord
  2
AI-Linetype-8
 70
     0
  3
Adobe Illustrator Linetype No. 8
 72
    65
 73
     6
 40
11.99999982613335
 49
1.000000027565501
 74
     0
 49
-2.99999991447895
 74
     0
 49
1.000000027565501
 74
     0
 49
-2.99999991447895
 74
     0
 49
1.000000027565501
 74
     0
 49
-2.99999991447895
 74
     0
  0
LTYPE
  5
1B0
330
5
100
AcDbSymbolTableRecord
100
AcDbLinetypeTableRecord
  2
AI-Linetype-9
 70
     0
  3
Adobe Illustrator Linetype No. 9
 72
    65
 73
     6
 40
11.99999982613335
 49
1.000000027565501
 74
     0
 49
-2.99999991447895
 74
     0
 49
1.000000027565501
 74
     0
 49
-2.99999991447895
 74
     0
 49
1.000000027565501
 74
     0
 49
-2.99999991447895
 74
     0
  0
ENDTAB
  0
TABLE
  2
LAYER
  5
2
330
0
100
AcDbSymbolTable
 70
     4
  0
LAYER
  5
10
330
2
100
AcDbSymbolTableRecord
100
AcDbLayerTableRecord
  2
0
 70
     0
 62
     7
  6
Continuous
370
    -3
390
F
347
3E
  0
LAYER
  5
40
330
2
100
AcDbSymbolTableRecord
100
AcDbLayerTableRecord
  2
Layer 4
 70
     0
 62
     7
  6
Continuous
370
    -3
390
F
347
3E
  0
LAYER
  5
6B
330
2
100
AcDbSymbolTableRecord
100
AcDbLayerTableRecord
  2
Layer 3
 70
     0
 62
     7
  6
Continuous
370
    -3
390
F
347
3E
  0
LAYER
  5
190
330
2
100
AcDbSymbolTableRecord
100
AcDbLayerTableRecord
  2
Layer 2
 70
     0
 62
     7
  6
Continuous
370
    -3
390
F
347
3E
  0
ENDTAB
  0
TABLE
  2
STYLE
  5
3
330
0
100
AcDbSymbolTable
 70
     1
  0
STYLE
  5
11
330
3
100
AcDbSymbolTableRecord
100
AcDbTextStyleTableRecord
  2
Standard
 70
     0
 40
0.0
 41
1.0
 50
0.0
 71
     0
 42
0.2
  3
txt
  4

  0
ENDTAB
  0
TABLE
  2
VIEW
  5
6
330
0
100
AcDbSymbolTable
 70
     0
  0
ENDTAB
  0
TABLE
  2
UCS
  5
7
330
0
100
AcDbSymbolTable
 70
     0
  0
ENDTAB
  0
TABLE
  2
APPID
  5
9
330
0
100
AcDbSymbolTable
 70
     1
  0
APPID
  5
12
330
9
100
AcDbSymbolTableRecord
100
AcDbRegAppTableRecord
  2
ACAD
 70
     0
  0
ENDTAB
  0
TABLE
  2
DIMSTYLE
  5
A
330
0
100
AcDbSymbolTable
 70
     1
100
AcDbDimStyleTable
  0
DIMSTYLE
105
27
330
A
100
AcDbSymbolTableRecord
100
AcDbDimStyleTableRecord
  2
Standard
 70
     0
178
     0
340
11
  0
ENDTAB
  0
TABLE
  2
BLOCK_RECORD
  5
1
330
0
100
AcDbSymbolTable
 70
     8
  0
BLOCK_RECORD
  5
1F
330
1
100
AcDbSymbolTableRecord
100
AcDbBlockTableRecord
  2
*Model_Space
340
22
 70
     0
280
     1
281
     0
  0
BLOCK_RECORD
  5
1B
330
1
100
AcDbSymbolTableRecord
100
AcDbBlockTableRecord
  2
*Paper_Space
340
1E
 70
     0
280
     1
281
     0
  0
BLOCK_RECORD
  5
23
330
1
100
AcDbSymbolTableRecord
100
AcDbBlockTableRecord
  2
*Paper_Space0
340
26
 70
     0
280
     1
281
     0
  0
BLOCK_RECORD
  5
41
330
1
100
AcDbSymbolTableRecord
100
AcDbBlockTableRecord
  2
block 2
340
0
102
{BLKREFS
331
42
102
}
 70
     0
280
     1
281
     0
  0
BLOCK_RECORD
  5
4C
330
1
100
AcDbSymbolTableRecord
100
AcDbBlockTableRecord
  2
block 3
340
0
102
{BLKREFS
331
4D
102
}
 70
     0
280
     1
281
     0
  0
BLOCK_RECORD
  5
58
330
1
100
AcDbSymbolTableRecord
100
AcDbBlockTableRecord
  2
block 4
340
0
102
{BLKREFS
331
59
102
}
 70
     0
280
     1
281
     0
  0
BLOCK_RECORD
  5
109
330
1
100
AcDbSymbolTableRecord
100
AcDbBlockTableRecord
  2
block 5
340
0
102
{BLKREFS
331
10A
102
}
 70
     0
280
     1
281
     0
  0
BLOCK_RECORD
  5
180
330
1
100
AcDbSymbolTableRecord
100
AcDbBlockTableRecord
  2
block 6
340
0
102
{BLKREFS
331
181
102
}
 70
     0
280
     1
281
     0
  0
BLOCK_RECORD
  5
191
330
1
100
AcDbSymbolTableRecord
100
AcDbBlockTableRecord
  2
block 7
340
0
102
{BLKREFS
331
192
102
}
 70
     0
280
     1
281
     0
  0
BLOCK_RECORD
  5
402
330
1
100
AcDbSymbolTableRecord
100
AcDbBlockTableRecord
  2
block 8
340
0
102
{BLKREFS
331
403
102
}
 70
     0
280
     1
281
     0
  0
ENDTAB
  0
ENDSEC
  0
SECTION
  2
BLOCKS
  0
BLOCK
  5
20
330
1F
100
AcDbEntity
  8
0
100
AcDbBlockBegin
  2
*Model_Space
 70
     0
 10
0.0
 20
0.0
 30
0.0
  3
*Model_Space
  1

  0
ENDBLK
  5
21
330
1F
100
AcDbEntity
  8
0
100
AcDbBlockEnd
  0
BLOCK
  5
1C
330
1B
100
AcDbEntity
 67
     1
  8
0
100
AcDbBlockBegin
  2
*Paper_Space
 70
     0
 10
0.0
 20
0.0
 30
0.0
  3
*Paper_Space
  1

  0
ENDBLK
  5
1D
330
1B
100
AcDbEntity
 67
     1
  8
0
100
AcDbBlockEnd
  0
BLOCK
  5
24
330
23
100
AcDbEntity
  8
0
100
AcDbBlockBegin
  2
*Paper_Space0
 70
     0
 10
0.0
 20
0.0
 30
0.0
  3
*Paper_Space0
  1

  0
ENDBLK
  5
25
330
23
100
AcDbEntity
  8
0
100
AcDbBlockEnd
  0
BLOCK
  5
43
330
41
100
AcDbEntity
  8
0
100
AcDbBlockBegin
  2
block 2
 70
     0
 10
0.0
 20
0.0
 30
0.0
  3
block 2
  1

  0
MTEXT
  5
45
330
41
100
AcDbEntity
  8
Layer 4
 62
    18
420
    65793
100
AcDbMText
 10
-79.74446493910251
 20
50.10333708464213
 30
0.0
 40
2.980577963942203
 41
0.0
 46
0.0
 71
     7
 72
     1
  1
\fArial|b0|i0|c0|p34;\W1;UNDERMOUNT CUTOUT 
 73
     1
 44
1.0
  0
MTEXT
  5
46
330
41
100
AcDbEntity
  8
Layer 4
 62
    18
420
    65793
100
AcDbMText
 10
-79.74446493910251
 20
45.02733339667503
 30
0.0
 40
2.980577963942203
 41
0.0
 46
0.0
 71
     7
 72
     1
  1
\fArial|b0|i0|c0|p34;\W1;REFER TO BENCH TOP 
 73
     1
 44
1.0
  0
MTEXT
  5
47
330
41
100
AcDbEntity
  8
Layer 4
 62
    18
420
    65793
100
AcDbMText
 10
-79.60597210059547
 20
39.95132970870792
 30
0.0
 40
2.980577963942203
 41
0.0
 46
0.0
 71
     7
 72
     1
  1
\fArial|b0|i0|c0|p34;\W1;SUPPLIER FOR 
 73
     1
 44
1.0
  0
MTEXT
  5
48
330
41
100
AcDbEntity
  8
Layer 4
 62
    18
420
    65793
100
AcDbMText
 10
-79.60597210059547
 20
34.87532602074081
 30
0.0
 40
2.980577963942203
 41
0.0
 46
0.0
 71
     7
 72
     1
  1
\fArial|b0|i0|c0|p34;\W1;SUITABILITY OF 
 73
     1
 44
1.0
  0
MTEXT
  5
49
330
41
100
AcDbEntity
  8
Layer 4
 62
    18
420
    65793
100
AcDbMText
 10
-79.74446493910251
 20
29.79932233277369
 30
0.0
 40
2.980577963942203
 41
0.0
 46
0.0
 71
     7
 72
     1
  1
\fArial|b0|i0|c0|p34;\W1;UNDERMOUNT 
 73
     1
 44
1.0
  0
MTEXT
  5
4A
330
41
100
AcDbEntity
  8
Layer 4
 62
    18
420
    65793
100
AcDbMText
 10
-79.80492636486865
 20
24.72331864480659
 30
0.0
 40
2.980577963942203
 41
0.0
 46
0.0
 71
     7
 72
     1
  1
\fArial|b0|i0|c0|p34;\W1;INSTALLATION AND TAP 
 73
     1
 44
1.0
  0
MTEXT
  5
4B
330
41
100
AcDbEntity
  8
Layer 4
 62
    18
420
    65793
100
AcDbMText
 10
-79.75083836575023
 20
19.64731495683947
 30
0.0
 40
2.980577963942203
 41
0.0
 46
0.0
 71
     7
 72
     1
  1
\fArial|b0|i0|c0|p34;\W1;HOLE POSITIONING.
 73
     1
 44
1.0
  0
ENDBLK
  5
44
330
41
100
AcDbEntity
  8
0
100
AcDbBlockEnd
  0
BLOCK
  5
4E
330
4C
100
AcDbEntity
  8
0
100
AcDbBlockBegin
  2
block 3
 70
     0
 10
0.0
 20
0.0
 30
0.0
  3
block 3
  1

  0
MTEXT
  5
50
330
4C
100
AcDbEntity
  8
Layer 4
 62
    18
420
    65793
100
AcDbMText
 10
-79.74351753784407
 20
-14.50313605899629
 30
0.0
 40
3.28335778275104
 41
0.0
 46
0.0
 71
     7
 72
     1
  1
\fArial|b0|i0|c0|p34;\W1;FLUSH MOUNT REBATE 
 73
     1
 44
1.0
  0
MTEXT
  5
51
330
4C
100
AcDbEntity
  8
Layer 4
 62
    18
420
    65793
100
AcDbMText
 10
-79.8665074466675
 20
-20.0948705411053
 30
0.0
 40
3.28335778275104
 41
0.0
 46
0.0
 71
     7
 72
     1
  1
\fArial|b0|i0|c0|p34;\W1;1.2MM USE ACTUAL SINK 
 73
     1
 44
1.0
  0
MTEXT
  5
52
330
4C
100
AcDbEntity
  8
Layer 4
 62
    18
420
    65793
100
AcDbMText
 10
-79.74351753784407
 20
-25.68660502321431
 30
0.0
 40
3.28335778275104
 41
0.0
 46
0.0
 71
     7
 72
     1
  1
\fArial|b0|i0|c0|p34;\W1;FOR EXACT DIMENSIONS
 73
     1
 44
1.0
  0
ENDBLK
  5
4F
330
4C
100
AcDbEntity
  8
0
100
AcDbBlockEnd
  0
BLOCK
  5
5A
330
58
100
AcDbEntity
  8
0
100
AcDbBlockBegin
  2
block 4
 70
     0
 10
0.0
 20
0.0
 30
0.0
  3
block 4
  1

  0
SPLINE
  5
5C
330
58
100
AcDbEntity
  8
Layer 4
370
     0
100
AcDbSpline
210
0.0
220
0.0
230
1.0
 70
    11
 71
     3
 72
    38
 73
    34
 74
     0
 42
0.0000000001
 43
0.0000000001
 12
1.0
 22
0.0
 32
0.0
 13
1.0
 23
0.0
 33
0.0
 40
0.0
 40
0.0
 40
0.0
 40
0.0
 40
1.0
 40
1.0
 40
1.0
 40
2.0
 40
2.0
 40
2.0
 40
3.0
 40
3.0
 40
3.0
 40
4.0
 40
4.0
 40
4.0
 40
5.0
 40
5.0
 40
5.0
 40
6.0
 40
6.0
 40
6.0
 40
7.0
 40
7.0
 40
7.0
 40
8.0
 40
8.0
 40
8.0
 40
9.0
 40
9.0
 40
9.0
 40
10.0
 40
10.0
 40
10.0
 40
11.0
 40
11.0
 40
11.0
 40
11.0
 10
-125.9750860612554
 20
101.862886716766
 30
0.0
 10
-125.9750860612554
 20
101.862886716766
 30
0.0
 10
-125.9829882834756
 20
101.897670605646
 30
0.0
 10
-125.9829882834756
 20
101.897670605646
 30
0.0
 10
-125.8817057835011
 20
102.0878178278209
 30
0.0
 10
-125.7180521724307
 20
102.1753419944653
 30
0.0
 10
-125.5106541169268
 20
102.0564911611622
 30
0.0
 10
-125.3287618947505
 20
101.9638164389628
 30
0.0
 10
-125.0266430059369
 20
102.1667342166902
 30
0.0
 10
-124.8357902282065
 20
102.2122072722343
 30
0.0
 10
-124.144698561713
 20
102.4723103277244
 30
0.0
 10
-123.417447173006
 20
102.6514508832356
 30
0.0
 10
-122.7177477287361
 20
102.8998417165065
 30
0.0
 10
-122.7177477287361
 20
102.8998417165065
 30
0.0
 10
-122.6756966176358
 20
102.9119067165035
 30
0.0
 10
-122.6253905065369
 20
102.9122594942813
 30
0.0
 10
-122.4338674510297
 20
102.9136353276142
 30
0.0
 10
-122.2970955066191
 20
102.7392925498803
 30
0.0
 10
-122.4641710621333
 20
102.578073105476
 30
0.0
 10
-122.6419357843109
 20
102.4061644944076
 30
0.0
 10
-123.1390702286311
 20
102.2342558833399
 30
0.0
 10
-123.3688696730177
 20
102.1233072722564
 30
0.0
 10
-123.3688696730177
 20
102.1233072722564
 30
0.0
 10
-125.0056174503864
 20
101.4949394946359
 30
0.0
 10
-125.1468696725735
 20
101.4311925502071
 30
0.0
 10
-125.1744216170113
 20
101.4191275502101
 30
0.0
 10
-125.1975285614495
 20
101.4046636613251
 30
0.0
 10
-125.2195771725551
 20
101.388118383551
 30
0.0
 10
-125.2195771725551
 20
101.388118383551
 30
0.0
 10
-125.2887921725379
 20
101.3357661613419
 30
0.0
 10
-125.2887921725379
 20
101.3357661613419
 30
0.0
 10
-125.6126421724568
 20
101.1028975502893
 30
0.0
 10
-125.9189238390472
 20
101.6113914390509
 30
0.0
 10
-125.9750860612554
 20
101.862886716766
 30
0.0
  0
HATCH
  5
5D
330
58
100
AcDbEntity
  8
Layer 4
 62
   250
420
  2301728
100
AcDbHatch
 10
0.0
 20
0.0
 30
0.0
210
0.0
220
0.0
230
1.0
  2
SOLID
 70
     1
 71
     0
 91
        1
 92
        1
 93
        2
 72
     4
 94
        3
 73
     0
 74
     0
 95
       38
 96
       34
 40
0.0
 40
0.0
 40
0.0
 40
0.0
 40
0.3527777776895833
 40
0.3527777776895833
 40
0.3527777776895833
 40
0.7055555553791667
 40
0.7055555553791667
 40
0.7055555553791667
 40
1.05833333306875
 40
1.05833333306875
 40
1.05833333306875
 40
1.411111110758333
 40
1.411111110758333
 40
1.411111110758333
 40
1.763888888447917
 40
1.763888888447917
 40
1.763888888447917
 40
2.1166666661375
 40
2.1166666661375
 40
2.1166666661375
 40
2.469444443827083
 40
2.469444443827083
 40
2.469444443827083
 40
2.822222221516667
 40
2.822222221516667
 40
2.822222221516667
 40
3.17499999920625
 40
3.17499999920625
 40
3.17499999920625
 40
3.527777776895833
 40
3.527777776895833
 40
3.527777776895833
 40
3.880555554585417
 40
3.880555554585417
 40
3.880555554585417
 40
3.880555554585417
 10
-125.9750860612554
 20
101.862886716766
 10
-125.9750860612554
 20
101.862886716766
 10
-125.9829882834756
 20
101.897670605646
 10
-125.9829882834756
 20
101.897670605646
 10
-125.8817057835011
 20
102.0878178278209
 10
-125.7180521724307
 20
102.1753419944653
 10
-125.5106541169268
 20
102.0564911611622
 10
-125.3287618947505
 20
101.9638164389628
 10
-125.0266430059369
 20
102.1667342166902
 10
-124.8357902282065
 20
102.2122072722343
 10
-124.144698561713
 20
102.4723103277244
 10
-123.417447173006
 20
102.6514508832356
 10
-122.7177477287361
 20
102.8998417165065
 10
-122.7177477287361
 20
102.8998417165065
 10
-122.6756966176358
 20
102.9119067165035
 10
-122.6253905065369
 20
102.9122594942813
 10
-122.4338674510297
 20
102.9136353276142
 10
-122.2970955066191
 20
102.7392925498803
 10
-122.4641710621333
 20
102.578073105476
 10
-122.6419357843109
 20
102.4061644944076
 10
-123.1390702286311
 20
102.2342558833399
 10
-123.3688696730177
 20
102.1233072722564
 10
-123.3688696730177
 20
102.1233072722564
 10
-125.0056174503864
 20
101.4949394946359
 10
-125.1468696725735
 20
101.4311925502071
 10
-125.1744216170113
 20
101.4191275502101
 10
-125.1975285614495
 20
101.4046636613251
 10
-125.2195771725551
 20
101.388118383551
 10
-125.2195771725551
 20
101.388118383551
 10
-125.2887921725379
 20
101.3357661613419
 10
-125.2887921725379
 20
101.3357661613419
 10
-125.6126421724568
 20
101.1028975502893
 10
-125.9189238390472
 20
101.6113914390509
 10
-125.9750860612554
 20
101.862886716766
 97
        0
 72
     1
 10
-125.9750860612554
 20
101.862886716766
 11
-125.9750860612554
 21
101.862886716766
 97
        0
 75
     2
 76
     1
 98
        0
  0
SPLINE
  5
5E
330
58
100
AcDbEntity
  8
Layer 4
370
     0
100
AcDbSpline
210
0.0
220
0.0
230
1.0
 70
    11
 71
     3
 72
    14
 73
    10
 74
     0
 42
0.0000000001
 43
0.0000000001
 12
1.0
 22
0.0
 32
0.0
 13
1.0
 23
0.0
 33
0.0
 40
0.0
 40
0.0
 40
0.0
 40
0.0
 40
1.0
 40
1.0
 40
1.0
 40
2.0
 40
2.0
 40
2.0
 40
3.0
 40
3.0
 40
3.0
 40
3.0
 10
-132.7970321706608
 20
103.2832758830774
 30
0.0
 10
-132.8525241150917
 20
102.5287900499329
 30
0.0
 10
-133.1622277261252
 20
102.0296094945018
 30
0.0
 10
-133.5315507815882
 20
101.4063922724357
 30
0.0
 10
-133.5267177260343
 20
102.1887828277958
 30
0.0
 10
-133.4202493927275
 20
102.8891525498424
 30
0.0
 10
-132.9396602261808
 20
103.3969761608267
 30
0.0
 10
-132.8779946706404
 20
103.4810431052504
 30
0.0
 10
-132.78154522622
 20
103.466226438587
 30
0.0
 10
-132.7970321706608
 20
103.2832758830774
 30
0.0
  0
SPLINE
  5
5F
330
58
100
AcDbEntity
  8
Layer 4
370
     0
100
AcDbSpline
210
0.0
220
0.0
230
1.0
 70
    11
 71
     3
 72
    14
 73
    10
 74
     0
 42
0.0000000001
 43
0.0000000001
 12
1.0
 22
0.0
 32
0.0
 13
1.0
 23
0.0
 33
0.0
 40
0.0
 40
0.0
 40
0.0
 40
0.0
 40
1.0
 40
1.0
 40
1.0
 40
2.0
 40
2.0
 40
2.0
 40
3.0
 40
3.0
 40
3.0
 40
3.0
 10
-125.2760568947636
 20
100.1306772727545
 30
0.0
 10
-125.2784557836516
 20
100.0672831061035
 30
0.0
 10
-125.4297268947248
 20
99.9005603283677
 30
0.0
 10
-125.701189394657
 20
99.85335866171297
 30
0.0
 10
-125.7507899502004
 20
100.1726931060773
 30
0.0
 10
-125.5964496724612
 20
100.3594183838085
 30
0.0
 10
-125.4455666169433
 20
100.3594183838085
 30
0.0
 10
-125.3208596725297
 20
100.3594183838085
 30
0.0
 10
-125.2691777280985
 20
100.3125694949315
 30
0.0
 10
-125.2760568947636
 20
100.1306772727545
 30
0.0
  0
SPLINE
  5
60
330
58
100
AcDbEntity
  8
Layer 4
370
     0
100
AcDbSpline
210
0.0
220
0.0
230
1.0
 70
    11
 71
     3
 72
   200
 73
   196
 74
     0
 42
0.0000000001
 43
0.0000000001
 12
1.0
 22
0.0
 32
0.0
 13
1.0
 23
0.0
 33
0.0
 40
0.0
 40
0.0
 40
0.0
 40
0.0
 40
1.0
 40
1.0
 40
1.0
 40
2.0
 40
2.0
 40
2.0
 40
3.0
 40
3.0
 40
3.0
 40
4.0
 40
4.0
 40
4.0
 40
5.0
 40
5.0
 40
5.0
 40
6.0
 40
6.0
 40
6.0
 40
7.0
 40
7.0
 40
7.0
 40
8.0
 40
8.0
 40
8.0
 40
9.0
 40
9.0
 40
9.0
 40
10.0
 40
10.0
 40
10.0
 40
11.0
 40
11.0
 40
11.0
 40
12.0
 40
12.0
 40
12.0
 40
13.0
 40
13.0
 40
13.0
 40
14.0
 40
14.0
 40
14.0
 40
15.0
 40
15.0
 40
15.0
 40
16.0
 40
16.0
 40
16.0
 40
17.0
 40
17.0
 40
17.0
 40
18.0
 40
18.0
 40
18.0
 40
19.0
 40
19.0
 40
19.0
 40
20.0
 40
20.0
 40
20.0
 40
21.0
 40
21.0
 40
21.0
 40
22.0
 40
22.0
 40
22.0
 40
23.0
 40
23.0
 40
23.0
 40
24.0
 40
24.0
 40
24.0
 40
25.0
 40
25.0
 40
25.0
 40
26.0
 40
26.0
 40
26.0
 40
27.0
 40
27.0
 40
27.0
 40
28.0
 40
28.0
 40
28.0
 40
29.0
 40
29.0
 40
29.0
 40
30.0
 40
30.0
 40
30.0
 40
31.0
 40
31.0
 40
31.0
 40
32.0
 40
32.0
 40
32.0
 40
33.0
 40
33.0
 40
33.0
 40
34.0
 40
34.0
 40
34.0
 40
35.0
 40
35.0
 40
35.0
 40
36.0
 40
36.0
 40
36.0
 40
37.0
 40
37.0
 40
37.0
 40
38.0
 40
38.0
 40
38.0
 40
39.0
 40
39.0
 40
39.0
 40
40.0
 40
40.0
 40
40.0
 40
41.0
 40
41.0
 40
41.0
 40
42.0
 40
42.0
 40
42.0
 40
43.0
 40
43.0
 40
43.0
 40
44.0
 40
44.0
 40
44.0
 40
45.0
 40
45.0
 40
45.0
 40
46.0
 40
46.0
 40
46.0
 40
47.0
 40
47.0
 40
47.0
 40
48.0
 40
48.0
 40
48.0
 40
49.0
 40
49.0
 40
49.0
 40
50.0
 40
50.0
 40
50.0
 40
51.0
 40
51.0
 40
51.0
 40
52.0
 40
52.0
 40
52.0
 40
53.0
 40
53.0
 40
53.0
 40
54.0
 40
54.0
 40
54.0
 40
55.0
 40
55.0
 40
55.0
 40
56.0
 40
56.0
 40
56.0
 40
57.0
 40
57.0
 40
57.0
 40
58.0
 40
58.0
 40
58.0
 40
59.0
 40
59.0
 40
59.0
 40
60.0
 40
60.0
 40
60.0
 40
61.0
 40
61.0
 40
61.0
 40
62.0
 40
62.0
 40
62.0
 40
63.0
 40
63.0
 40
63.0
 40
64.0
 40
64.0
 40
64.0
 40
65.0
 40
65.0
 40
65.0
 40
65.0
 10
-123.2699860619312
 20
99.46576171736527
 30
0.0
 10
-123.2699860619312
 20
99.46576171736527
 30
0.0
 10
-123.2110721730572
 20
99.2198050507599
 30
0.0
 10
-123.2110721730572
 20
99.2198050507599
 30
0.0
 10
-123.1786871730653
 20
99.09231116190297
 30
0.0
 10
-123.1411163397414
 20
98.97381310637702
 30
0.0
 10
-123.0787805064236
 20
98.85736116196196
 30
0.0
 10
-122.6815527287451
 20
98.3261483843167
 30
0.0
 10
-121.668022173443
 20
98.38675560652379
 30
0.0
 10
-121.1484863402395
 20
98.54801032870557
 30
0.0
 10
-120.8608313403116
 20
98.63758060646086
 30
0.0
 10
-120.5845357848252
 20
98.78500643975747
 30
0.0
 10
-120.3254557848902
 20
98.93934671749666
 30
0.0
 10
-119.6647030072771
 20
98.5049361620495
 30
0.0
 10
-118.8302777297081
 20
98.37056310652814
 30
0.0
 10
-117.994159118806
 20
98.36745866208398
 30
0.0
 10
-117.1397666190198
 20
98.36403671764084
 30
0.0
 10
-116.2671355081264
 20
98.49837449538468
 30
0.0
 10
-115.5502205083058
 20
98.6031142175805
 30
0.0
 10
-114.7874796751633
 20
98.65204449534652
 30
0.0
 10
-114.1793966197596
 20
99.01134866192339
 30
0.0
 10
-113.3770388421823
 20
98.83876977307766
 30
0.0
 10
-113.2041071755595
 20
98.89662532861834
 30
0.0
 10
-113.0676880089266
 20
98.98481977304074
 30
0.0
 10
-113.0804232867009
 20
99.20015532854295
 30
0.0
 10
-113.158281342237
 20
99.390655328495
 30
0.0
 10
-113.2657727310992
 20
99.5236525506841
 30
0.0
 10
-113.4900335643767
 20
99.54157366179041
 30
0.0
 10
-113.8683171753932
 20
99.3786256062755
 30
0.0
 10
-114.2954957863975
 20
99.426850328486
 30
0.0
 10
-114.6903246751874
 20
99.33004810628789
 30
0.0
 10
-115.6942243971586
 20
99.09576838412426
 30
0.0
 10
-116.763211619114
 20
99.00411671748057
 30
0.0
 10
-117.8990855077185
 20
98.94245116194018
 30
0.0
 10
-118.6032652297648
 20
98.94830727305013
 30
0.0
 10
-119.4938174517645
 20
98.959349217492
 30
0.0
 10
-119.9847430071976
 20
99.55293310623253
 30
0.0
 10
-120.0388238405174
 20
99.73172088396534
 30
0.0
 10
-119.8920682849981
 20
99.96945782835027
 30
0.0
 10
-119.950629396095
 20
100.2237047727311
 30
0.0
 10
-120.0422810627387
 20
100.401116717131
 30
0.0
 10
-120.1924938404786
 20
100.5185917171018
 30
0.0
 10
-120.4108985626461
 20
100.460700883783
 30
0.0
 10
-120.7099130070162
 20
100.244695050504
 30
0.0
 10
-120.7057855070169
 20
99.88778977281517
 30
0.0
 10
-120.6789391181346
 20
99.56362227289601
 30
0.0
 10
-121.1098924513605
 20
99.00686838414634
 30
0.0
 10
-122.1014096733351
 20
98.77467005087111
 30
0.0
 10
-122.525836617673
 20
99.20601143965226
 30
0.0
 10
-122.5482380065564
 20
99.28249366185541
 30
0.0
 10
-122.5906066176572
 20
99.43235366181818
 30
0.0
 10
-122.5475324510008
 20
99.54224393956842
 30
0.0
 10
-122.5434049510022
 20
99.5556847728983
 30
0.0
 10
-122.5392774510029
 20
99.57014866178332
 30
0.0
 10
-122.5375488398922
 20
99.58669393955738
 30
0.0
 10
-122.5151474510089
 20
99.75376949507094
 30
0.0
 10
-122.5702866176619
 20
99.87918199503946
 30
0.0
 10
-122.7232510620683
 20
99.93361560613702
 30
0.0
 10
-123.0140105064397
 20
100.0404014394437
 30
0.0
 10
-122.9967949508889
 20
100.1709997727442
 30
0.0
 10
-123.2028171730593
 20
100.3525392171434
 30
0.0
 10
-123.414660228562
 20
100.5478722726503
 30
0.0
 10
-123.6616752285
 20
100.4538217171179
 30
0.0
 10
-123.808783561797
 20
100.2581358838339
 30
0.0
 10
-123.844978561788
 20
99.73517810618662
 30
0.0
 10
-124.2146191172506
 20
99.30627088407165
 30
0.0
 10
-124.6208074504827
 20
99.02447199525304
 30
0.0
 10
-124.8805577281957
 20
98.93454893972
 30
0.0
 10
-125.2061363392252
 20
98.96418227304619
 30
0.0
 10
-125.4186849502835
 20
99.10850366189862
 30
0.0
 10
-125.4893110613767
 20
99.15708116188688
 30
0.0
 10
-125.5141113391481
 20
99.2111972729842
 30
0.0
 10
-125.515487172481
 20
99.24908560630833
 30
0.0
 10
-125.1765030058997
 20
99.34451199517355
 30
0.0
 10
-124.8726555059755
 20
99.57498171733813
 30
0.0
 10
-124.6993357837967
 20
99.89159977281423
 30
0.0
 10
-124.4936663394035
 20
100.4428150504542
 30
0.0
 10
-124.8922699504149
 20
101.0312131058628
 30
0.0
 10
-125.5047980058175
 20
100.9457703281062
 30
0.0
 10
-126.0694541167874
 20
100.866889217015
 30
0.0
 10
-126.34818383894
 20
100.4682856060036
 30
0.0
 10
-126.3213021722795
 20
99.78135671728623
 30
0.0
 10
-126.6317113388692
 20
99.7940919950606
 30
0.0
 10
-126.9100530054659
 20
99.89745588392417
 30
0.0
 10
-127.1987663387274
 20
100.0135550505615
 30
0.0
 10
-127.4464868942206
 20
100.1134617172031
 30
0.0
 10
-127.4905841164318
 20
100.3459775504786
 30
0.0
 10
-127.8509113385638
 20
100.278808661606
 30
0.0
 10
-128.1344388384931
 20
99.97873588390334
 30
0.0
 10
-127.9356838385431
 20
99.78202699506359
 30
0.0
 10
-127.7499816163674
 20
99.54499560623418
 30
0.0
 10
-127.5636091164137
 20
99.30902255073742
 30
0.0
 10
-127.5722168941894
 20
98.95486893971496
 30
0.0
 10
-127.8671038385601
 20
98.78744060642363
 30
0.0
 10
-128.2898374495656
 20
98.68718116200424
 30
0.0
 10
-128.6432855050325
 20
99.05717449524523
 30
0.0
 10
-128.9002841160797
 20
99.33142393962078
 30
0.0
 10
-128.896862171636
 20
99.4950422729137
 30
0.0
 10
-128.8920291160818
 20
99.8123658839453
 30
0.0
 10
-128.9340449494046
 20
99.95220699502133
 30
0.0
 10
-129.0177943938281
 20
100.2329828282842
 30
0.0
 10
-129.1989810604495
 20
100.4741417171129
 30
0.0
 10
-129.532144393699
 20
100.3628756060298
 30
0.0
 10
-129.7398599492032
 20
100.0862272727656
 30
0.0
 10
-129.6602732825565
 20
99.75514532840381
 30
0.0
 10
-129.5466082825847
 20
99.47267616180785
 30
0.0
 10
-129.6396005047837
 20
99.18396282854665
 30
0.0
 10
-129.7770780047493
 20
98.90216393972804
 30
0.0
 10
-130.0468118935709
 20
98.75883032865322
 30
0.0
 10
-130.3603255046035
 20
98.6840767175607
 30
0.0
 10
-130.906390226689
 20
98.75918310643097
 30
0.0
 10
-131.1323796710772
 20
99.31900616184602
 30
0.0
 10
-131.1192916155244
 20
99.39344227293893
 30
0.0
 10
-131.0848252266447
 20
99.60496782844145
 30
0.0
 10
-131.0845077266444
 20
99.82062088394325
 30
0.0
 10
-131.0841549488667
 20
99.95358282835421
 30
0.0
 10
-131.0968902266417
 20
100.0975867172071
 30
0.0
 10
-131.1396116155194
 20
100.2150969949554
 30
0.0
 10
-131.2801582821519
 20
100.5968025504156
 30
0.0
 10
-131.8520463375636
 20
100.5929925504166
 30
0.0
 10
-131.8520463375636
 20
99.93636727280278
 30
0.0
 10
-131.8520463375636
 20
99.7796281061756
 30
0.0
 10
-131.8282691153474
 20
99.62218338399286
 30
0.0
 10
-131.7917566153567
 20
99.46988921736391
 30
0.0
 10
-132.0194746708555
 20
99.00242338414745
 30
0.0
 10
-132.4880341151828
 20
98.90869032861535
 30
0.0
 10
-132.8166818928784
 20
98.97141421748901
 30
0.0
 10
-133.3000227260909
 20
99.21807643964925
 30
0.0
 10
-133.4560916149408
 20
99.74343310618458
 30
0.0
 10
-133.524318837146
 20
100.284664772716
 30
0.0
 10
-133.1784202261208
 20
100.7611264392634
 30
0.0
 10
-132.8869552261939
 20
101.1786742169369
 30
0.0
 10
-132.5855066151583
 20
101.7584997723473
 30
0.0
 10
-132.2396432819113
 20
102.4013314388535
 30
0.0
 10
-132.1056230041671
 20
102.66418616101
 30
0.0
 10
-132.0787413375073
 20
103.4569131052564
 30
0.0
 10
-132.1610796708197
 20
104.4332608827899
 30
0.0
 10
-133.3623938371862
 20
104.1545311606372
 30
0.0
 10
-133.6183693926777
 20
103.6370767163221
 30
0.0
 10
-134.2301918925247
 20
102.6786853276732
 30
0.0
 10
-134.3356371702761
 20
101.3905525502172
 30
0.0
 10
-134.2277930036367
 20
100.3001869949343
 30
0.0
 10
-134.3477021702731
 20
100.0748678283241
 30
0.0
 10
-134.5288888368945
 20
99.90158338392283
 30
0.0
 10
-134.70700633685
 20
99.72311310618963
 30
0.0
 10
-134.8716830034759
 20
99.58154338400296
 30
0.0
 10
-135.0063735589981
 20
99.54330227290106
 30
0.0
 10
-135.1025055034179
 20
99.32348643962307
 30
0.0
 10
-135.0546335589851
 20
99.23493921742292
 30
0.0
 10
-135.0408399478775
 20
99.22082810631503
 30
0.0
 10
-134.9271396701282
 20
99.15228338411022
 30
0.0
 10
-134.577113559105
 20
99.04479199524799
 30
0.0
 10
-134.3690452258232
 20
99.2580461618618
 30
0.0
 10
-134.1458074481014
 20
99.47197060625233
 30
0.0
 10
-134.1458074481014
 20
99.47197060625233
 30
0.0
 10
-134.0486524481256
 20
99.56224643956313
 30
0.0
 10
-134.0486524481256
 20
99.56224643956313
 30
0.0
 10
-133.818182725961
 20
99.0795758841286
 30
0.0
 10
-133.4657577260491
 20
98.52525616204446
 30
0.0
 10
-132.8983499484135
 20
98.36745866208398
 30
0.0
 10
-132.569314115162
 20
98.31235477320905
 30
0.0
 10
-132.1707457819287
 20
98.31443616209746
 30
0.0
 10
-131.8727191153363
 20
98.50045588427308
 30
0.0
 10
-131.8727191153363
 20
98.50045588427308
 30
0.0
 10
-131.4338282821127
 20
98.78260755086946
 30
0.0
 10
-131.4338282821127
 20
98.78260755086946
 30
0.0
 10
-131.1144585599702
 20
98.40605255096362
 30
0.0
 10
-130.7000152267409
 20
98.10322810659454
 30
0.0
 10
-130.1529274490996
 20
98.15491005102633
 30
0.0
 10
-129.7922474491898
 20
98.17043227324463
 30
0.0
 10
-129.5066385603722
 20
98.42743088429123
 30
0.0
 10
-129.2765216159853
 20
98.67684477311788
 30
0.0
 10
-129.2765216159853
 20
98.67684477311788
 30
0.0
 10
-129.143877171574
 20
98.82497616197001
 30
0.0
 10
-129.143877171574
 20
98.82497616197001
 30
0.0
 10
-128.7886652272192
 20
98.45152560650772
 30
0.0
 10
-128.3752802273222
 20
98.1035808843723
 30
0.0
 10
-127.7565432830319
 20
98.2179514398996
 30
0.0
 10
-127.3768838386825
 20
98.26688171766497
 30
0.0
 10
-127.1749891165108
 20
98.47632588427908
 30
0.0
 10
-127.0268577276587
 20
98.80843088419594
 30
0.0
 10
-126.9572546721206
 20
98.97106143971125
 30
0.0
 10
-126.977257172116
 20
99.1481206063334
 30
0.0
 10
-126.9948255054445
 20
99.31763032851313
 30
0.0
 10
-126.7367685610646
 20
99.25113171741857
 30
0.0
 10
-126.4694335611317
 20
99.19602782854366
 30
0.0
 10
-126.2031216167538
 20
99.18604421743507
 30
0.0
 10
-126.1118227278879
 20
98.95038866193853
 30
0.0
 10
-125.9506032834837
 20
98.67684477311788
 30
0.0
 10
-125.713254394654
 20
98.5673072731454
 30
0.0
 10
-125.1989043947824
 20
98.330275884316
 30
0.0
 10
-125.1699413392342
 20
98.36954005097238
 30
0.0
 10
-124.6862477282439
 20
98.39504588429926
 30
0.0
 10
-124.0688866172872
 20
98.50941643982655
 30
0.0
 10
-123.6155318951786
 20
98.99173421748397
 30
0.0
 10
-123.2699860619312
 20
99.46576171736527
 30
0.0
  0
SPLINE
  5
61
330
58
100
AcDbEntity
  8
Layer 4
370
     0
100
AcDbSpline
210
0.0
220
0.0
230
1.0
 70
    11
 71
     3
 72
    53
 73
    49
 74
     0
 42
0.0000000001
 43
0.0000000001
 12
1.0
 22
0.0
 32
0.0
 13
1.0
 23
0.0
 33
0.0
 40
0.0
 40
0.0
 40
0.0
 40
0.0
 40
1.0
 40
1.0
 40
1.0
 40
2.0
 40
2.0
 40
2.0
 40
3.0
 40
3.0
 40
3.0
 40
4.0
 40
4.0
 40
4.0
 40
5.0
 40
5.0
 40
5.0
 40
6.0
 40
6.0
 40
6.0
 40
7.0
 40
7.0
 40
7.0
 40
8.0
 40
8.0
 40
8.0
 40
9.0
 40
9.0
 40
9.0
 40
10.0
 40
10.0
 40
10.0
 40
11.0
 40
11.0
 40
11.0
 40
12.0
 40
12.0
 40
12.0
 40
13.0
 40
13.0
 40
13.0
 40
14.0
 40
14.0
 40
14.0
 40
15.0
 40
15.0
 40
15.0
 40
16.0
 40
16.0
 40
16.0
 40
16.0
 10
-138.3398766137194
 20
102.9043219942836
 30
0.0
 10
-138.3398766137194
 20
102.9043219942836
 30
0.0
 10
-138.4707924470201
 20
103.0256069942528
 30
0.0
 10
-138.4707924470201
 20
103.0256069942528
 30
0.0
 10
-138.4707924470201
 20
103.0256069942528
 30
0.0
 10
-138.3443568914964
 20
103.0865669942377
 30
0.0
 10
-138.3443568914964
 20
103.0865669942377
 30
0.0
 10
-138.1462368915456
 20
103.1499611608887
 30
0.0
 10
-137.9309366138216
 20
103.1661536608843
 30
0.0
 10
-137.8299716138473
 20
102.9356839387198
 30
0.0
 10
-137.8051713360753
 20
102.7337892165481
 30
0.0
 10
-137.8895910582768
 20
102.6118339388009
 30
0.0
 10
-138.0325718915745
 20
102.4857511610543
 30
0.0
 10
-138.3405468914974
 20
102.4578464388394
 30
0.0
 10
-138.5469218914455
 20
102.1743189389102
 30
0.0
 10
-138.7374218913982
 20
101.9613822722966
 30
0.0
 10
-138.956884946899
 20
101.4439631057596
 30
0.0
 10
-138.7763685580549
 20
100.8217689392487
 30
0.0
 10
-138.668524391415
 20
100.3001869949343
 30
0.0
 10
-138.668524391415
 20
100.3001869949343
 30
0.0
 10
-138.6030841136537
 20
100.2364400505061
 30
0.0
 10
-138.6030841136537
 20
100.2364400505061
 30
0.0
 10
-138.4841980025725
 20
100.1189650505353
 30
0.0
 10
-138.3877485581521
 20
99.99390532834451
 30
0.0
 10
-138.3963563359278
 20
99.81441199505555
 30
0.0
 10
-138.5093510581216
 20
99.5109172729091
 30
0.0
 10
-139.1118955024156
 20
99.36310338405721
 30
0.0
 10
-139.1756424468437
 20
99.84782005060327
 30
0.0
 10
-139.2851799468168
 20
100.0404014394437
 30
0.0
 10
-139.32860689125
 20
100.1799250505201
 30
0.0
 10
-139.3568643912434
 20
100.3222356060399
 30
0.0
 10
-139.3568643912434
 20
100.3222356060399
 30
0.0
 10
-139.3764788356828
 20
100.4348775504565
 30
0.0
 10
-139.3764788356828
 20
100.4348775504565
 30
0.0
 10
-139.4133441134512
 20
100.154101717193
 30
0.0
 10
-139.3685766134626
 20
99.82682977283032
 30
0.0
 10
-139.3213749468072
 20
99.55120449512125
 30
0.0
 10
-139.2245727246097
 20
99.1856914396573
 30
0.0
 10
-138.9727246691172
 20
98.9066442175051
 30
0.0
 10
-138.6113391136516
 20
98.75988866198585
 30
0.0
 10
-137.7831227249697
 20
98.56349727314635
 30
0.0
 10
-137.1003213362517
 20
99.12917643967134
 30
0.0
 10
-136.6276343919257
 20
99.74138699507434
 30
0.0
 10
-135.8838377254447
 20
100.8038478281417
 30
0.0
 10
-135.2230849478322
 20
102.1360778278089
 30
0.0
 10
-135.8242535587927
 20
103.4231522719316
 30
0.0
 10
-136.5415213363911
 20
104.3205836605957
 30
0.0
 10
-137.9491752249282
 20
103.9037414384777
 30
0.0
 10
-138.3398766137194
 20
102.9043219942836
 30
0.0
  0
SPLINE
  5
62
330
58
100
AcDbEntity
  8
Layer 4
370
     0
100
AcDbSpline
210
0.0
220
0.0
230
1.0
 70
    11
 71
     3
 72
    23
 73
    19
 74
     0
 42
0.0000000001
 43
0.0000000001
 12
1.0
 22
0.0
 32
0.0
 13
1.0
 23
0.0
 33
0.0
 40
0.0
 40
0.0
 40
0.0
 40
0.0
 40
1.0
 40
1.0
 40
1.0
 40
2.0
 40
2.0
 40
2.0
 40
3.0
 40
3.0
 40
3.0
 40
4.0
 40
4.0
 40
4.0
 40
5.0
 40
5.0
 40
5.0
 40
6.0
 40
6.0
 40
6.0
 40
6.0
 10
-136.111591058721
 20
99.30214338407299
 30
0.0
 10
-136.6944857807974
 20
98.51079227315944
 30
0.0
 10
-137.6439518916711
 20
97.98370699551347
 30
0.0
 10
-138.6595638358621
 20
98.12665255103303
 30
0.0
 10
-139.3758085579054
 20
98.31750532876347
 30
0.0
 10
-139.8394996689003
 20
99.01307727303404
 30
0.0
 10
-139.9580330022038
 20
99.69764255064025
 30
0.0
 10
-140.1023896688344
 20
100.5919694948615
 30
0.0
 10
-139.8598549466728
 20
101.4067450502135
 30
0.0
 10
-139.3871680023469
 20
102.0799156056007
 30
0.0
 10
-139.2455630023821
 20
103.058309494245
 30
0.0
 10
-138.6891971691877
 20
103.9974392162323
 30
0.0
 10
-137.7187055027636
 20
104.4294508827908
 30
0.0
 10
-137.1134093918038
 20
104.6499369938468
 30
0.0
 10
-135.7581077254759
 20
104.7470919938227
 30
0.0
 10
-135.2992143922576
 20
103.7549044940707
 30
0.0
 10
-134.4654946702435
 20
102.2177106055658
 30
0.0
 10
-135.301295781146
 20
100.5296336615437
 30
0.0
 10
-136.111591058721
 20
99.30214338407299
 30
0.0
  0
SPLINE
  5
63
330
58
100
AcDbEntity
  8
Layer 4
370
     0
100
AcDbSpline
210
0.0
220
0.0
230
1.0
 70
    11
 71
     3
 72
    17
 73
    13
 74
     0
 42
0.0000000001
 43
0.0000000001
 12
1.0
 22
0.0
 32
0.0
 13
1.0
 23
0.0
 33
0.0
 40
0.0
 40
0.0
 40
0.0
 40
0.0
 40
1.0
 40
1.0
 40
1.0
 40
2.0
 40
2.0
 40
2.0
 40
3.0
 40
3.0
 40
3.0
 40
4.0
 40
4.0
 40
4.0
 40
4.0
 10
-120.0098960627467
 20
101.1135514391752
 30
0.0
 10
-119.9705966183122
 20
101.2331078280345
 30
0.0
 10
-119.9833671738641
 20
101.3922811613278
 30
0.0
 10
-120.0550163405133
 20
101.5025242168558
 30
0.0
 10
-120.2100621738077
 20
101.6975044945849
 30
0.0
 10
-120.5087238403994
 20
101.8360050501062
 30
0.0
 10
-120.6937205070199
 20
101.5806997723921
 30
0.0
 10
-120.7871007847742
 20
101.3526642168937
 30
0.0
 10
-120.7171802292365
 20
101.1256164391722
 30
0.0
 10
-120.5342296737263
 20
100.9691947725446
 30
0.0
 10
-120.3392493959978
 20
100.9223458836677
 30
0.0
 10
-120.1177049516085
 20
100.8758497725685
 30
0.0
 10
-120.0098960627467
 20
101.1135514391752
 30
0.0
  0
SPLINE
  5
64
330
58
100
AcDbEntity
  8
Layer 4
370
     0
100
AcDbSpline
210
0.0
220
0.0
230
1.0
 70
    11
 71
     3
 72
    17
 73
    13
 74
     0
 42
0.0000000001
 43
0.0000000001
 12
1.0
 22
0.0
 32
0.0
 13
1.0
 23
0.0
 33
0.0
 40
0.0
 40
0.0
 40
0.0
 40
0.0
 40
1.0
 40
1.0
 40
1.0
 40
2.0
 40
2.0
 40
2.0
 40
3.0
 40
3.0
 40
3.0
 40
4.0
 40
4.0
 40
4.0
 40
4.0
 10
-131.1861077266192
 20
101.4787469946396
 30
0.0
 10
-131.2863671710386
 20
101.3350958835645
 30
0.0
 10
-131.5337349487544
 20
101.3350958835645
 30
0.0
 10
-131.6611935598338
 20
101.3870953279959
 30
0.0
 10
-131.8461902264543
 20
101.4625544946439
 30
0.0
 10
-132.0219088375211
 20
101.7064650501384
 30
0.0
 10
-131.886512726444
 20
101.9421206056349
 30
0.0
 10
-131.7352768931483
 20
102.2056456055688
 30
0.0
 10
-131.421410504338
 20
102.1333261611425
 30
0.0
 10
-131.2594855043788
 20
102.0013519945092
 30
0.0
 10
-131.1578855044041
 20
101.9186961611965
 30
0.0
 10
-131.0507116155421
 20
101.671998661258
 30
0.0
 10
-131.1861077266192
 20
101.4787469946396
 30
0.0
  0
HATCH
  5
65
330
58
100
AcDbEntity
  8
Layer 4
 62
   250
420
  2301728
100
AcDbHatch
 10
0.0
 20
0.0
 30
0.0
210
0.0
220
0.0
230
1.0
  2
SOLID
 70
     1
 71
     0
 91
        7
 92
        1
 93
        2
 72
     4
 94
        3
 73
     0
 74
     0
 95
       14
 96
       10
 40
0.0
 40
0.0
 40
0.0
 40
0.0
 40
0.3527777776895833
 40
0.3527777776895833
 40
0.3527777776895833
 40
0.7055555553791667
 40
0.7055555553791667
 40
0.7055555553791667
 40
1.05833333306875
 40
1.05833333306875
 40
1.05833333306875
 40
1.05833333306875
 10
-132.7970321706608
 20
103.2832758830774
 10
-132.8525241150917
 20
102.5287900499329
 10
-133.1622277261252
 20
102.0296094945018
 10
-133.5315507815882
 20
101.4063922724357
 10
-133.5267177260343
 20
102.1887828277958
 10
-133.4202493927275
 20
102.8891525498424
 10
-132.9396602261808
 20
103.3969761608267
 10
-132.8779946706404
 20
103.4810431052504
 10
-132.78154522622
 20
103.466226438587
 10
-132.7970321706608
 20
103.2832758830774
 97
        0
 72
     1
 10
-132.7970321706608
 20
103.2832758830774
 11
-132.7970321706608
 21
103.2832758830774
 97
        0
 92
        1
 93
        2
 72
     4
 94
        3
 73
     0
 74
     0
 95
       14
 96
       10
 40
0.0
 40
0.0
 40
0.0
 40
0.0
 40
0.3527777776895833
 40
0.3527777776895833
 40
0.3527777776895833
 40
0.7055555553791667
 40
0.7055555553791667
 40
0.7055555553791667
 40
1.05833333306875
 40
1.05833333306875
 40
1.05833333306875
 40
1.05833333306875
 10
-125.2760568947636
 20
100.1306772727545
 10
-125.2784557836516
 20
100.0672831061035
 10
-125.4297268947248
 20
99.9005603283677
 10
-125.701189394657
 20
99.85335866171297
 10
-125.7507899502004
 20
100.1726931060773
 10
-125.5964496724612
 20
100.3594183838085
 10
-125.4455666169433
 20
100.3594183838085
 10
-125.3208596725297
 20
100.3594183838085
 10
-125.2691777280985
 20
100.3125694949315
 10
-125.2760568947636
 20
100.1306772727545
 97
        0
 72
     1
 10
-125.2760568947636
 20
100.1306772727545
 11
-125.2760568947636
 21
100.1306772727545
 97
        0
 92
        1
 93
        2
 72
     4
 94
        3
 73
     0
 74
     0
 95
      200
 96
      196
 40
0.0
 40
0.0
 40
0.0
 40
0.0
 40
0.3527777776895833
 40
0.3527777776895833
 40
0.3527777776895833
 40
0.7055555553791667
 40
0.7055555553791667
 40
0.7055555553791667
 40
1.05833333306875
 40
1.05833333306875
 40
1.05833333306875
 40
1.411111110758333
 40
1.411111110758333
 40
1.411111110758333
 40
1.763888888447917
 40
1.763888888447917
 40
1.763888888447917
 40
2.1166666661375
 40
2.1166666661375
 40
2.1166666661375
 40
2.469444443827083
 40
2.469444443827083
 40
2.469444443827083
 40
2.822222221516667
 40
2.822222221516667
 40
2.822222221516667
 40
3.17499999920625
 40
3.17499999920625
 40
3.17499999920625
 40
3.527777776895833
 40
3.527777776895833
 40
3.527777776895833
 40
3.880555554585417
 40
3.880555554585417
 40
3.880555554585417
 40
4.233333332275
 40
4.233333332275
 40
4.233333332275
 40
4.586111109964584
 40
4.586111109964584
 40
4.586111109964584
 40
4.938888887654167
 40
4.938888887654167
 40
4.938888887654167
 40
5.29166666534375
 40
5.29166666534375
 40
5.29166666534375
 40
5.644444443033334
 40
5.644444443033334
 40
5.644444443033334
 40
5.997222220722917
 40
5.997222220722917
 40
5.997222220722917
 40
6.349999998412501
 40
6.349999998412501
 40
6.349999998412501
 40
6.702777776102083
 40
6.702777776102083
 40
6.702777776102083
 40
7.055555553791667
 40
7.055555553791667
 40
7.055555553791667
 40
7.40833333148125
 40
7.40833333148125
 40
7.40833333148125
 40
7.761111109170834
 40
7.761111109170834
 40
7.761111109170834
 40
8.113888886860417
 40
8.113888886860417
 40
8.113888886860417
 40
8.46666666455
 40
8.46666666455
 40
8.46666666455
 40
8.819444442239584
 40
8.819444442239584
 40
8.819444442239584
 40
9.172222219929168
 40
9.172222219929168
 40
9.172222219929168
 40
9.52499999761875
 40
9.52499999761875
 40
9.52499999761875
 40
9.877777775308333
 40
9.877777775308333
 40
9.877777775308333
 40
10.23055555299792
 40
10.23055555299792
 40
10.23055555299792
 40
10.5833333306875
 40
10.5833333306875
 40
10.5833333306875
 40
10.93611110837708
 40
10.93611110837708
 40
10.93611110837708
 40
11.28888888606667
 40
11.28888888606667
 40
11.28888888606667
 40
11.64166666375625
 40
11.64166666375625
 40
11.64166666375625
 40
11.99444444144583
 40
11.99444444144583
 40
11.99444444144583
 40
12.34722221913542
 40
12.34722221913542
 40
12.34722221913542
 40
12.699999996825
 40
12.699999996825
 40
12.699999996825
 40
13.05277777451458
 40
13.05277777451458
 40
13.05277777451458
 40
13.40555555220417
 40
13.40555555220417
 40
13.40555555220417
 40
13.75833332989375
 40
13.75833332989375
 40
13.75833332989375
 40
14.11111110758333
 40
14.11111110758333
 40
14.11111110758333
 40
14.46388888527292
 40
14.46388888527292
 40
14.46388888527292
 40
14.8166666629625
 40
14.8166666629625
 40
14.8166666629625
 40
15.16944444065208
 40
15.16944444065208
 40
15.16944444065208
 40
15.52222221834167
 40
15.52222221834167
 40
15.52222221834167
 40
15.87499999603125
 40
15.87499999603125
 40
15.87499999603125
 40
16.22777777372083
 40
16.22777777372083
 40
16.22777777372083
 40
16.58055555141042
 40
16.58055555141042
 40
16.58055555141042
 40
16.9333333291
 40
16.9333333291
 40
16.9333333291
 40
17.28611110678958
 40
17.28611110678958
 40
17.28611110678958
 40
17.63888888447917
 40
17.63888888447917
 40
17.63888888447917
 40
17.99166666216875
 40
17.99166666216875
 40
17.99166666216875
 40
18.34444443985834
 40
18.34444443985834
 40
18.34444443985834
 40
18.69722221754792
 40
18.69722221754792
 40
18.69722221754792
 40
19.0499999952375
 40
19.0499999952375
 40
19.0499999952375
 40
19.40277777292708
 40
19.40277777292708
 40
19.40277777292708
 40
19.75555555061667
 40
19.75555555061667
 40
19.75555555061667
 40
20.10833332830625
 40
20.10833332830625
 40
20.10833332830625
 40
20.46111110599583
 40
20.46111110599583
 40
20.46111110599583
 40
20.81388888368542
 40
20.81388888368542
 40
20.81388888368542
 40
21.166666661375
 40
21.166666661375
 40
21.166666661375
 40
21.51944443906459
 40
21.51944443906459
 40
21.51944443906459
 40
21.87222221675417
 40
21.87222221675417
 40
21.87222221675417
 40
22.22499999444375
 40
22.22499999444375
 40
22.22499999444375
 40
22.57777777213333
 40
22.57777777213333
 40
22.57777777213333
 40
22.93055554982292
 40
22.93055554982292
 40
22.93055554982292
 40
22.93055554982292
 10
-123.2699860619312
 20
99.46576171736527
 10
-123.2699860619312
 20
99.46576171736527
 10
-123.2110721730572
 20
99.2198050507599
 10
-123.2110721730572
 20
99.2198050507599
 10
-123.1786871730653
 20
99.09231116190297
 10
-123.1411163397414
 20
98.97381310637702
 10
-123.0787805064236
 20
98.85736116196196
 10
-122.6815527287451
 20
98.3261483843167
 10
-121.668022173443
 20
98.38675560652379
 10
-121.1484863402395
 20
98.54801032870557
 10
-120.8608313403116
 20
98.63758060646086
 10
-120.5845357848252
 20
98.78500643975747
 10
-120.3254557848902
 20
98.93934671749666
 10
-119.6647030072771
 20
98.5049361620495
 10
-118.8302777297081
 20
98.37056310652814
 10
-117.994159118806
 20
98.36745866208398
 10
-117.1397666190198
 20
98.36403671764084
 10
-116.2671355081264
 20
98.49837449538468
 10
-115.5502205083058
 20
98.6031142175805
 10
-114.7874796751633
 20
98.65204449534652
 10
-114.1793966197596
 20
99.01134866192339
 10
-113.3770388421823
 20
98.83876977307766
 10
-113.2041071755595
 20
98.89662532861834
 10
-113.0676880089266
 20
98.98481977304074
 10
-113.0804232867009
 20
99.20015532854295
 10
-113.158281342237
 20
99.390655328495
 10
-113.2657727310992
 20
99.5236525506841
 10
-113.4900335643767
 20
99.54157366179041
 10
-113.8683171753932
 20
99.3786256062755
 10
-114.2954957863975
 20
99.426850328486
 10
-114.6903246751874
 20
99.33004810628789
 10
-115.6942243971586
 20
99.09576838412426
 10
-116.763211619114
 20
99.00411671748057
 10
-117.8990855077185
 20
98.94245116194018
 10
-118.6032652297648
 20
98.94830727305013
 10
-119.4938174517645
 20
98.959349217492
 10
-119.9847430071976
 20
99.55293310623253
 10
-120.0388238405174
 20
99.73172088396534
 10
-119.8920682849981
 20
99.96945782835027
 10
-119.950629396095
 20
100.2237047727311
 10
-120.0422810627387
 20
100.401116717131
 10
-120.1924938404786
 20
100.5185917171018
 10
-120.4108985626461
 20
100.460700883783
 10
-120.7099130070162
 20
100.244695050504
 10
-120.7057855070169
 20
99.88778977281517
 10
-120.6789391181346
 20
99.56362227289601
 10
-121.1098924513605
 20
99.00686838414634
 10
-122.1014096733351
 20
98.77467005087111
 10
-122.525836617673
 20
99.20601143965226
 10
-122.5482380065564
 20
99.28249366185541
 10
-122.5906066176572
 20
99.43235366181818
 10
-122.5475324510008
 20
99.54224393956842
 10
-122.5434049510022
 20
99.5556847728983
 10
-122.5392774510029
 20
99.57014866178332
 10
-122.5375488398922
 20
99.58669393955738
 10
-122.5151474510089
 20
99.75376949507094
 10
-122.5702866176619
 20
99.87918199503946
 10
-122.7232510620683
 20
99.93361560613702
 10
-123.0140105064397
 20
100.0404014394437
 10
-122.9967949508889
 20
100.1709997727442
 10
-123.2028171730593
 20
100.3525392171434
 10
-123.414660228562
 20
100.5478722726503
 10
-123.6616752285
 20
100.4538217171179
 10
-123.808783561797
 20
100.2581358838339
 10
-123.844978561788
 20
99.73517810618662
 10
-124.2146191172506
 20
99.30627088407165
 10
-124.6208074504827
 20
99.02447199525304
 10
-124.8805577281957
 20
98.93454893972
 10
-125.2061363392252
 20
98.96418227304619
 10
-125.4186849502835
 20
99.10850366189862
 10
-125.4893110613767
 20
99.15708116188688
 10
-125.5141113391481
 20
99.2111972729842
 10
-125.515487172481
 20
99.24908560630833
 10
-125.1765030058997
 20
99.34451199517355
 10
-124.8726555059755
 20
99.57498171733813
 10
-124.6993357837967
 20
99.89159977281423
 10
-124.4936663394035
 20
100.4428150504542
 10
-124.8922699504149
 20
101.0312131058628
 10
-125.5047980058175
 20
100.9457703281062
 10
-126.0694541167874
 20
100.866889217015
 10
-126.34818383894
 20
100.4682856060036
 10
-126.3213021722795
 20
99.78135671728623
 10
-126.6317113388692
 20
99.7940919950606
 10
-126.9100530054659
 20
99.89745588392417
 10
-127.1987663387274
 20
100.0135550505615
 10
-127.4464868942206
 20
100.1134617172031
 10
-127.4905841164318
 20
100.3459775504786
 10
-127.8509113385638
 20
100.278808661606
 10
-128.1344388384931
 20
99.97873588390334
 10
-127.9356838385431
 20
99.78202699506359
 10
-127.7499816163674
 20
99.54499560623418
 10
-127.5636091164137
 20
99.30902255073742
 10
-127.5722168941894
 20
98.95486893971496
 10
-127.8671038385601
 20
98.78744060642363
 10
-128.2898374495656
 20
98.68718116200424
 10
-128.6432855050325
 20
99.05717449524523
 10
-128.9002841160797
 20
99.33142393962078
 10
-128.896862171636
 20
99.4950422729137
 10
-128.8920291160818
 20
99.8123658839453
 10
-128.9340449494046
 20
99.95220699502133
 10
-129.0177943938281
 20
100.2329828282842
 10
-129.1989810604495
 20
100.4741417171129
 10
-129.532144393699
 20
100.3628756060298
 10
-129.7398599492032
 20
100.0862272727656
 10
-129.6602732825565
 20
99.75514532840381
 10
-129.5466082825847
 20
99.47267616180785
 10
-129.6396005047837
 20
99.18396282854665
 10
-129.7770780047493
 20
98.90216393972804
 10
-130.0468118935709
 20
98.75883032865322
 10
-130.3603255046035
 20
98.6840767175607
 10
-130.906390226689
 20
98.75918310643097
 10
-131.1323796710772
 20
99.31900616184602
 10
-131.1192916155244
 20
99.39344227293893
 10
-131.0848252266447
 20
99.60496782844145
 10
-131.0845077266444
 20
99.82062088394325
 10
-131.0841549488667
 20
99.95358282835421
 10
-131.0968902266417
 20
100.0975867172071
 10
-131.1396116155194
 20
100.2150969949554
 10
-131.2801582821519
 20
100.5968025504156
 10
-131.8520463375636
 20
100.5929925504166
 10
-131.8520463375636
 20
99.93636727280278
 10
-131.8520463375636
 20
99.7796281061756
 10
-131.8282691153474
 20
99.62218338399286
 10
-131.7917566153567
 20
99.46988921736391
 10
-132.0194746708555
 20
99.00242338414745
 10
-132.4880341151828
 20
98.90869032861535
 10
-132.8166818928784
 20
98.97141421748901
 10
-133.3000227260909
 20
99.21807643964925
 10
-133.4560916149408
 20
99.74343310618458
 10
-133.524318837146
 20
100.284664772716
 10
-133.1784202261208
 20
100.7611264392634
 10
-132.8869552261939
 20
101.1786742169369
 10
-132.5855066151583
 20
101.7584997723473
 10
-132.2396432819113
 20
102.4013314388535
 10
-132.1056230041671
 20
102.66418616101
 10
-132.0787413375073
 20
103.4569131052564
 10
-132.1610796708197
 20
104.4332608827899
 10
-133.3623938371862
 20
104.1545311606372
 10
-133.6183693926777
 20
103.6370767163221
 10
-134.2301918925247
 20
102.6786853276732
 10
-134.3356371702761
 20
101.3905525502172
 10
-134.2277930036367
 20
100.3001869949343
 10
-134.3477021702731
 20
100.0748678283241
 10
-134.5288888368945
 20
99.90158338392283
 10
-134.70700633685
 20
99.72311310618963
 10
-134.8716830034759
 20
99.58154338400296
 10
-135.0063735589981
 20
99.54330227290106
 10
-135.1025055034179
 20
99.32348643962307
 10
-135.0546335589851
 20
99.23493921742292
 10
-135.0408399478775
 20
99.22082810631503
 10
-134.9271396701282
 20
99.15228338411022
 10
-134.577113559105
 20
99.04479199524799
 10
-134.3690452258232
 20
99.2580461618618
 10
-134.1458074481014
 20
99.47197060625233
 10
-134.1458074481014
 20
99.47197060625233
 10
-134.0486524481256
 20
99.56224643956313
 10
-134.0486524481256
 20
99.56224643956313
 10
-133.818182725961
 20
99.0795758841286
 10
-133.4657577260491
 20
98.52525616204446
 10
-132.8983499484135
 20
98.36745866208398
 10
-132.569314115162
 20
98.31235477320905
 10
-132.1707457819287
 20
98.31443616209746
 10
-131.8727191153363
 20
98.50045588427308
 10
-131.8727191153363
 20
98.50045588427308
 10
-131.4338282821127
 20
98.78260755086946
 10
-131.4338282821127
 20
98.78260755086946
 10
-131.1144585599702
 20
98.40605255096362
 10
-130.7000152267409
 20
98.10322810659454
 10
-130.1529274490996
 20
98.15491005102633
 10
-129.7922474491898
 20
98.17043227324463
 10
-129.5066385603722
 20
98.42743088429123
 10
-129.2765216159853
 20
98.67684477311788
 10
-129.2765216159853
 20
98.67684477311788
 10
-129.143877171574
 20
98.82497616197001
 10
-129.143877171574
 20
98.82497616197001
 10
-128.7886652272192
 20
98.45152560650772
 10
-128.3752802273222
 20
98.1035808843723
 10
-127.7565432830319
 20
98.2179514398996
 10
-127.3768838386825
 20
98.26688171766497
 10
-127.1749891165108
 20
98.47632588427908
 10
-127.0268577276587
 20
98.80843088419594
 10
-126.9572546721206
 20
98.97106143971125
 10
-126.977257172116
 20
99.1481206063334
 10
-126.9948255054445
 20
99.31763032851313
 10
-126.7367685610646
 20
99.25113171741857
 10
-126.4694335611317
 20
99.19602782854366
 10
-126.2031216167538
 20
99.18604421743507
 10
-126.1118227278879
 20
98.95038866193853
 10
-125.9506032834837
 20
98.67684477311788
 10
-125.713254394654
 20
98.5673072731454
 10
-125.1989043947824
 20
98.330275884316
 10
-125.1699413392342
 20
98.36954005097238
 10
-124.6862477282439
 20
98.39504588429926
 10
-124.0688866172872
 20
98.50941643982655
 10
-123.6155318951786
 20
98.99173421748397
 10
-123.2699860619312
 20
99.46576171736527
 97
        0
 72
     1
 10
-123.2699860619312
 20
99.46576171736527
 11
-123.2699860619312
 21
99.46576171736527
 97
        0
 92
        1
 93
        2
 72
     4
 94
        3
 73
     0
 74
     0
 95
       53
 96
       49
 40
0.0
 40
0.0
 40
0.0
 40
0.0
 40
0.3527777776895833
 40
0.3527777776895833
 40
0.3527777776895833
 40
0.7055555553791667
 40
0.7055555553791667
 40
0.7055555553791667
 40
1.05833333306875
 40
1.05833333306875
 40
1.05833333306875
 40
1.411111110758333
 40
1.411111110758333
 40
1.411111110758333
 40
1.763888888447917
 40
1.763888888447917
 40
1.763888888447917
 40
2.1166666661375
 40
2.1166666661375
 40
2.1166666661375
 40
2.469444443827083
 40
2.469444443827083
 40
2.469444443827083
 40
2.822222221516667
 40
2.822222221516667
 40
2.822222221516667
 40
3.17499999920625
 40
3.17499999920625
 40
3.17499999920625
 40
3.527777776895833
 40
3.527777776895833
 40
3.527777776895833
 40
3.880555554585417
 40
3.880555554585417
 40
3.880555554585417
 40
4.233333332275
 40
4.233333332275
 40
4.233333332275
 40
4.586111109964584
 40
4.586111109964584
 40
4.586111109964584
 40
4.938888887654167
 40
4.938888887654167
 40
4.938888887654167
 40
5.29166666534375
 40
5.29166666534375
 40
5.29166666534375
 40
5.644444443033334
 40
5.644444443033334
 40
5.644444443033334
 40
5.644444443033334
 10
-138.3398766137194
 20
102.9043219942836
 10
-138.3398766137194
 20
102.9043219942836
 10
-138.4707924470201
 20
103.0256069942528
 10
-138.4707924470201
 20
103.0256069942528
 10
-138.4707924470201
 20
103.0256069942528
 10
-138.3443568914964
 20
103.0865669942377
 10
-138.3443568914964
 20
103.0865669942377
 10
-138.1462368915456
 20
103.1499611608887
 10
-137.9309366138216
 20
103.1661536608843
 10
-137.8299716138473
 20
102.9356839387198
 10
-137.8051713360753
 20
102.7337892165481
 10
-137.8895910582768
 20
102.6118339388009
 10
-138.0325718915745
 20
102.4857511610543
 10
-138.3405468914974
 20
102.4578464388394
 10
-138.5469218914455
 20
102.1743189389102
 10
-138.7374218913982
 20
101.9613822722966
 10
-138.956884946899
 20
101.4439631057596
 10
-138.7763685580549
 20
100.8217689392487
 10
-138.668524391415
 20
100.3001869949343
 10
-138.668524391415
 20
100.3001869949343
 10
-138.6030841136537
 20
100.2364400505061
 10
-138.6030841136537
 20
100.2364400505061
 10
-138.4841980025725
 20
100.1189650505353
 10
-138.3877485581521
 20
99.99390532834451
 10
-138.3963563359278
 20
99.81441199505555
 10
-138.5093510581216
 20
99.5109172729091
 10
-139.1118955024156
 20
99.36310338405721
 10
-139.1756424468437
 20
99.84782005060327
 10
-139.2851799468168
 20
100.0404014394437
 10
-139.32860689125
 20
100.1799250505201
 10
-139.3568643912434
 20
100.3222356060399
 10
-139.3568643912434
 20
100.3222356060399
 10
-139.3764788356828
 20
100.4348775504565
 10
-139.3764788356828
 20
100.4348775504565
 10
-139.4133441134512
 20
100.154101717193
 10
-139.3685766134626
 20
99.82682977283032
 10
-139.3213749468072
 20
99.55120449512125
 10
-139.2245727246097
 20
99.1856914396573
 10
-138.9727246691172
 20
98.9066442175051
 10
-138.6113391136516
 20
98.75988866198585
 10
-137.7831227249697
 20
98.56349727314635
 10
-137.1003213362517
 20
99.12917643967134
 10
-136.6276343919257
 20
99.74138699507434
 10
-135.8838377254447
 20
100.8038478281417
 10
-135.2230849478322
 20
102.1360778278089
 10
-135.8242535587927
 20
103.4231522719316
 10
-136.5415213363911
 20
104.3205836605957
 10
-137.9491752249282
 20
103.9037414384777
 10
-138.3398766137194
 20
102.9043219942836
 97
        0
 72
     1
 10
-138.3398766137194
 20
102.9043219942836
 11
-138.3398766137194
 21
102.9043219942836
 97
        0
 92
        1
 93
        2
 72
     4
 94
        3
 73
     0
 74
     0
 95
       23
 96
       19
 40
0.0
 40
0.0
 40
0.0
 40
0.0
 40
0.3527777776895833
 40
0.3527777776895833
 40
0.3527777776895833
 40
0.7055555553791667
 40
0.7055555553791667
 40
0.7055555553791667
 40
1.05833333306875
 40
1.05833333306875
 40
1.05833333306875
 40
1.411111110758333
 40
1.411111110758333
 40
1.411111110758333
 40
1.763888888447917
 40
1.763888888447917
 40
1.763888888447917
 40
2.1166666661375
 40
2.1166666661375
 40
2.1166666661375
 40
2.1166666661375
 10
-136.111591058721
 20
99.30214338407299
 10
-136.6944857807974
 20
98.51079227315944
 10
-137.6439518916711
 20
97.98370699551347
 10
-138.6595638358621
 20
98.12665255103303
 10
-139.3758085579054
 20
98.31750532876347
 10
-139.8394996689003
 20
99.01307727303404
 10
-139.9580330022038
 20
99.69764255064025
 10
-140.1023896688344
 20
100.5919694948615
 10
-139.8598549466728
 20
101.4067450502135
 10
-139.3871680023469
 20
102.0799156056007
 10
-139.2455630023821
 20
103.058309494245
 10
-138.6891971691877
 20
103.9974392162323
 10
-137.7187055027636
 20
104.4294508827908
 10
-137.1134093918038
 20
104.6499369938468
 10
-135.7581077254759
 20
104.7470919938227
 10
-135.2992143922576
 20
103.7549044940707
 10
-134.4654946702435
 20
102.2177106055658
 10
-135.301295781146
 20
100.5296336615437
 10
-136.111591058721
 20
99.30214338407299
 97
        0
 72
     1
 10
-136.111591058721
 20
99.30214338407299
 11
-136.111591058721
 21
99.30214338407299
 97
        0
 92
        1
 93
        2
 72
     4
 94
        3
 73
     0
 74
     0
 95
       17
 96
       13
 40
0.0
 40
0.0
 40
0.0
 40
0.0
 40
0.3527777776895833
 40
0.3527777776895833
 40
0.3527777776895833
 40
0.7055555553791667
 40
0.7055555553791667
 40
0.7055555553791667
 40
1.05833333306875
 40
1.05833333306875
 40
1.05833333306875
 40
1.411111110758333
 40
1.411111110758333
 40
1.411111110758333
 40
1.411111110758333
 10
-120.0098960627467
 20
101.1135514391752
 10
-119.9705966183122
 20
101.2331078280345
 10
-119.9833671738641
 20
101.3922811613278
 10
-120.0550163405133
 20
101.5025242168558
 10
-120.2100621738077
 20
101.6975044945849
 10
-120.5087238403994
 20
101.8360050501062
 10
-120.6937205070199
 20
101.5806997723921
 10
-120.7871007847742
 20
101.3526642168937
 10
-120.7171802292365
 20
101.1256164391722
 10
-120.5342296737263
 20
100.9691947725446
 10
-120.3392493959978
 20
100.9223458836677
 10
-120.1177049516085
 20
100.8758497725685
 10
-120.0098960627467
 20
101.1135514391752
 97
        0
 72
     1
 10
-120.0098960627467
 20
101.1135514391752
 11
-120.0098960627467
 21
101.1135514391752
 97
        0
 92
        1
 93
        2
 72
     4
 94
        3
 73
     0
 74
     0
 95
       17
 96
       13
 40
0.0
 40
0.0
 40
0.0
 40
0.0
 40
0.3527777776895833
 40
0.3527777776895833
 40
0.3527777776895833
 40
0.7055555553791667
 40
0.7055555553791667
 40
0.7055555553791667
 40
1.05833333306875
 40
1.05833333306875
 40
1.05833333306875
 40
1.411111110758333
 40
1.411111110758333
 40
1.411111110758333
 40
1.411111110758333
 10
-131.1861077266192
 20
101.4787469946396
 10
-131.2863671710386
 20
101.3350958835645
 10
-131.5337349487544
 20
101.3350958835645
 10
-131.6611935598338
 20
101.3870953279959
 10
-131.8461902264543
 20
101.4625544946439
 10
-132.0219088375211
 20
101.7064650501384
 10
-131.886512726444
 20
101.9421206056349
 10
-131.7352768931483
 20
102.2056456055688
 10
-131.421410504338
 20
102.1333261611425
 10
-131.2594855043788
 20
102.0013519945092
 10
-131.1578855044041
 20
101.9186961611965
 10
-131.0507116155421
 20
101.671998661258
 10
-131.1861077266192
 20
101.4787469946396
 97
        0
 72
     1
 10
-131.1861077266192
 20
101.4787469946396
 11
-131.1861077266192
 21
101.4787469946396
 97
        0
 75
     2
 76
     1
 98
        0
  0
SPLINE
  5
66
330
58
100
AcDbEntity
  8
Layer 4
370
     0
100
AcDbSpline
210
0.0
220
0.0
230
1.0
 70
    11
 71
     3
 72
    20
 73
    16
 74
     0
 42
0.0000000001
 43
0.0000000001
 12
1.0
 22
0.0
 32
0.0
 13
1.0
 23
0.0
 33
0.0
 40
0.0
 40
0.0
 40
0.0
 40
0.0
 40
1.0
 40
1.0
 40
1.0
 40
2.0
 40
2.0
 40
2.0
 40
3.0
 40
3.0
 40
3.0
 40
4.0
 40
4.0
 40
4.0
 40
5.0
 40
5.0
 40
5.0
 40
5.0
 10
-113.7415288420911
 20
100.3332422727036
 30
0.0
 10
-113.7415288420911
 20
100.3332422727036
 30
0.0
 10
-113.6653993976657
 20
100.3332422727036
 30
0.0
 10
-113.6653993976657
 20
100.3332422727036
 30
0.0
 10
-113.6247593976765
 20
100.3332422727036
 30
0.0
 10
-113.5844368976862
 20
100.3205069949292
 30
0.0
 10
-113.5844368976862
 20
100.2757042171625
 30
0.0
 10
-113.5844368976862
 20
100.2243750505091
 30
0.0
 10
-113.6161163421226
 20
100.2143914394005
 30
0.0
 10
-113.6653993976657
 20
100.2143914394005
 30
0.0
 10
-113.6653993976657
 20
100.2143914394005
 30
0.0
 10
-113.7415288420911
 20
100.2143914394005
 30
0.0
 10
-113.7415288420911
 20
100.2143914394005
 30
0.0
 10
-113.7415288420911
 20
100.2143914394005
 30
0.0
 10
-113.7415288420911
 20
100.3332422727036
 30
0.0
 10
-113.7415288420911
 20
100.3332422727036
 30
0.0
  0
SPLINE
  5
67
330
58
100
AcDbEntity
  8
Layer 4
370
     0
100
AcDbSpline
210
0.0
220
0.0
230
1.0
 70
    11
 71
     3
 72
    35
 73
    31
 74
     0
 42
0.0000000001
 43
0.0000000001
 12
1.0
 22
0.0
 32
0.0
 13
1.0
 23
0.0
 33
0.0
 40
0.0
 40
0.0
 40
0.0
 40
0.0
 40
1.0
 40
1.0
 40
1.0
 40
2.0
 40
2.0
 40
2.0
 40
3.0
 40
3.0
 40
3.0
 40
4.0
 40
4.0
 40
4.0
 40
5.0
 40
5.0
 40
5.0
 40
6.0
 40
6.0
 40
6.0
 40
7.0
 40
7.0
 40
7.0
 40
8.0
 40
8.0
 40
8.0
 40
9.0
 40
9.0
 40
9.0
 40
10.0
 40
10.0
 40
10.0
 40
10.0
 10
-113.8059460642973
 20
99.99080088390035
 30
0.0
 10
-113.8059460642973
 20
99.99080088390035
 30
0.0
 10
-113.7415288420911
 20
99.99080088390035
 30
0.0
 10
-113.7415288420911
 20
99.99080088390035
 30
0.0
 10
-113.7415288420911
 20
99.99080088390035
 30
0.0
 10
-113.7415288420911
 20
100.1644381060794
 30
0.0
 10
-113.7415288420911
 20
100.1644381060794
 30
0.0
 10
-113.7415288420911
 20
100.1644381060794
 30
0.0
 10
-113.6878007865491
 20
100.1644381060794
 30
0.0
 10
-113.6878007865491
 20
100.1644381060794
 30
0.0
 10
-113.6878007865491
 20
100.1644381060794
 30
0.0
 10
-113.5782280087991
 20
99.99080088390035
 30
0.0
 10
-113.5782280087991
 20
99.99080088390035
 30
0.0
 10
-113.5782280087991
 20
99.99080088390035
 30
0.0
 10
-113.5103535643717
 20
99.99080088390035
 30
0.0
 10
-113.5103535643717
 20
99.99080088390035
 30
0.0
 10
-113.5103535643717
 20
99.99080088390035
 30
0.0
 10
-113.6220077310101
 20
100.1644381060794
 30
0.0
 10
-113.6220077310101
 20
100.1644381060794
 30
0.0
 10
-113.5606596754699
 20
100.1644381060794
 30
0.0
 10
-113.5203724532578
 20
100.2099111616235
 30
0.0
 10
-113.5203724532578
 20
100.2729525504967
 30
0.0
 10
-113.5203724532578
 20
100.3470358838112
 30
0.0
 10
-113.5651399532463
 20
100.3835483838025
 30
0.0
 10
-113.6554157865571
 20
100.3835483838025
 30
0.0
 10
-113.6554157865571
 20
100.3835483838025
 30
0.0
 10
-113.8059460642973
 20
100.3835483838025
 30
0.0
 10
-113.8059460642973
 20
100.3835483838025
 30
0.0
 10
-113.8059460642973
 20
100.3835483838025
 30
0.0
 10
-113.8059460642973
 20
99.99080088390035
 30
0.0
 10
-113.8059460642973
 20
99.99080088390035
 30
0.0
  0
SPLINE
  5
68
330
58
100
AcDbEntity
  8
Layer 4
370
     0
100
AcDbSpline
210
0.0
220
0.0
230
1.0
 70
    11
 71
     3
 72
    17
 73
    13
 74
     0
 42
0.0000000001
 43
0.0000000001
 12
1.0
 22
0.0
 32
0.0
 13
1.0
 23
0.0
 33
0.0
 40
0.0
 40
0.0
 40
0.0
 40
0.0
 40
1.0
 40
1.0
 40
1.0
 40
2.0
 40
2.0
 40
2.0
 40
3.0
 40
3.0
 40
3.0
 40
4.0
 40
4.0
 40
4.0
 40
4.0
 10
-113.9485741198172
 20
100.186486717185
 30
0.0
 10
-113.9485741198172
 20
100.3470358838112
 30
0.0
 10
-113.8324749531799
 20
100.4717428282249
 30
0.0
 10
-113.6764060643301
 20
100.4717428282249
 30
0.0
 10
-113.5227713421458
 20
100.4717428282249
 30
0.0
 10
-113.4066721755085
 20
100.3470358838112
 30
0.0
 10
-113.4066721755085
 20
100.186486717185
 30
0.0
 10
-113.4066721755085
 20
100.0259375505587
 30
0.0
 10
-113.5227713421458
 20
99.90158338392283
 30
0.0
 10
-113.6764060643301
 20
99.90158338392283
 30
0.0
 10
-113.8324749531799
 20
99.90158338392283
 30
0.0
 10
-113.9485741198172
 20
100.0259375505587
 30
0.0
 10
-113.9485741198172
 20
100.186486717185
 30
0.0
  0
SPLINE
  5
69
330
58
100
AcDbEntity
  8
Layer 4
370
     0
100
AcDbSpline
210
0.0
220
0.0
230
1.0
 70
    11
 71
     3
 72
    17
 73
    13
 74
     0
 42
0.0000000001
 43
0.0000000001
 12
1.0
 22
0.0
 32
0.0
 13
1.0
 23
0.0
 33
0.0
 40
0.0
 40
0.0
 40
0.0
 40
0.0
 40
1.0
 40
1.0
 40
1.0
 40
2.0
 40
2.0
 40
2.0
 40
3.0
 40
3.0
 40
3.0
 40
4.0
 40
4.0
 40
4.0
 40
4.0
 10
-114.0126738420238
 20
100.186486717185
 30
0.0
 10
-114.0126738420238
 20
100.0018428283422
 30
0.0
 10
-113.8624610642833
 20
99.85127727282456
 30
0.0
 10
-113.6774643976627
 20
99.85127727282456
 30
0.0
 10
-113.4927852310425
 20
99.85127727282456
 30
0.0
 10
-113.3422549533023
 20
100.0018428283422
 30
0.0
 10
-113.3422549533023
 20
100.186486717185
 30
0.0
 10
-113.3422549533023
 20
100.3711306060277
 30
0.0
 10
-113.4927852310425
 20
100.5220489393231
 30
0.0
 10
-113.6774643976627
 20
100.5220489393231
 30
0.0
 10
-113.8624610642833
 20
100.5220489393231
 30
0.0
 10
-114.0126738420238
 20
100.3711306060277
 30
0.0
 10
-114.0126738420238
 20
100.186486717185
 30
0.0
  0
HATCH
  5
6A
330
58
100
AcDbEntity
  8
Layer 4
 62
   250
420
  2301728
100
AcDbHatch
 10
0.0
 20
0.0
 30
0.0
210
0.0
220
0.0
230
1.0
  2
SOLID
 70
     1
 71
     0
 91
        4
 92
        1
 93
        1
 72
     4
 94
        3
 73
     0
 74
     1
 95
       20
 96
       16
 40
0.0
 40
0.0
 40
0.0
 40
0.0
 40
1.0
 40
1.0
 40
1.0
 40
2.0
 40
2.0
 40
2.0
 40
3.0
 40
3.0
 40
3.0
 40
4.0
 40
4.0
 40
4.0
 40
5.0
 40
5.0
 40
5.0
 40
5.0
 10
-113.7415288420911
 20
100.3332422727036
 10
-113.7415288420911
 20
100.3332422727036
 10
-113.6653993976657
 20
100.3332422727036
 10
-113.6653993976657
 20
100.3332422727036
 10
-113.6247593976765
 20
100.3332422727036
 10
-113.5844368976862
 20
100.3205069949292
 10
-113.5844368976862
 20
100.2757042171625
 10
-113.5844368976862
 20
100.2243750505091
 10
-113.6161163421226
 20
100.2143914394005
 10
-113.6653993976657
 20
100.2143914394005
 10
-113.6653993976657
 20
100.2143914394005
 10
-113.7415288420911
 20
100.2143914394005
 10
-113.7415288420911
 20
100.2143914394005
 10
-113.7415288420911
 20
100.2143914394005
 10
-113.7415288420911
 20
100.3332422727036
 10
-113.7415288420911
 20
100.3332422727036
 97
        0
 97
        0
 92
        1
 93
        1
 72
     4
 94
        3
 73
     0
 74
     1
 95
       35
 96
       31
 40
0.0
 40
0.0
 40
0.0
 40
0.0
 40
1.0
 40
1.0
 40
1.0
 40
2.0
 40
2.0
 40
2.0
 40
3.0
 40
3.0
 40
3.0
 40
4.0
 40
4.0
 40
4.0
 40
5.0
 40
5.0
 40
5.0
 40
6.0
 40
6.0
 40
6.0
 40
7.0
 40
7.0
 40
7.0
 40
8.0
 40
8.0
 40
8.0
 40
9.0
 40
9.0
 40
9.0
 40
10.0
 40
10.0
 40
10.0
 40
10.0
 10
-113.8059460642973
 20
99.99080088390035
 10
-113.8059460642973
 20
99.99080088390035
 10
-113.7415288420911
 20
99.99080088390035
 10
-113.7415288420911
 20
99.99080088390035
 10
-113.7415288420911
 20
99.99080088390035
 10
-113.7415288420911
 20
100.1644381060794
 10
-113.7415288420911
 20
100.1644381060794
 10
-113.7415288420911
 20
100.1644381060794
 10
-113.6878007865491
 20
100.1644381060794
 10
-113.6878007865491
 20
100.1644381060794
 10
-113.6878007865491
 20
100.1644381060794
 10
-113.5782280087991
 20
99.99080088390035
 10
-113.5782280087991
 20
99.99080088390035
 10
-113.5782280087991
 20
99.99080088390035
 10
-113.5103535643717
 20
99.99080088390035
 10
-113.5103535643717
 20
99.99080088390035
 10
-113.5103535643717
 20
99.99080088390035
 10
-113.6220077310101
 20
100.1644381060794
 10
-113.6220077310101
 20
100.1644381060794
 10
-113.5606596754699
 20
100.1644381060794
 10
-113.5203724532578
 20
100.2099111616235
 10
-113.5203724532578
 20
100.2729525504967
 10
-113.5203724532578
 20
100.3470358838112
 10
-113.5651399532463
 20
100.3835483838025
 10
-113.6554157865571
 20
100.3835483838025
 10
-113.6554157865571
 20
100.3835483838025
 10
-113.8059460642973
 20
100.3835483838025
 10
-113.8059460642973
 20
100.3835483838025
 10
-113.8059460642973
 20
100.3835483838025
 10
-113.8059460642973
 20
99.99080088390035
 10
-113.8059460642973
 20
99.99080088390035
 97
        0
 97
        0
 92
        1
 93
        2
 72
     4
 94
        3
 73
     0
 74
     0
 95
       17
 96
       13
 40
0.0
 40
0.0
 40
0.0
 40
0.0
 40
0.3527777776895833
 40
0.3527777776895833
 40
0.3527777776895833
 40
0.7055555553791667
 40
0.7055555553791667
 40
0.7055555553791667
 40
1.05833333306875
 40
1.05833333306875
 40
1.05833333306875
 40
1.411111110758333
 40
1.411111110758333
 40
1.411111110758333
 40
1.411111110758333
 10
-113.9485741198172
 20
100.186486717185
 10
-113.9485741198172
 20
100.3470358838112
 10
-113.8324749531799
 20
100.4717428282249
 10
-113.6764060643301
 20
100.4717428282249
 10
-113.5227713421458
 20
100.4717428282249
 10
-113.4066721755085
 20
100.3470358838112
 10
-113.4066721755085
 20
100.186486717185
 10
-113.4066721755085
 20
100.0259375505587
 10
-113.5227713421458
 20
99.90158338392283
 10
-113.6764060643301
 20
99.90158338392283
 10
-113.8324749531799
 20
99.90158338392283
 10
-113.9485741198172
 20
100.0259375505587
 10
-113.9485741198172
 20
100.186486717185
 97
        0
 72
     1
 10
-113.9485741198172
 20
100.186486717185
 11
-113.9485741198172
 21
100.186486717185
 97
        0
 92
        1
 93
        2
 72
     4
 94
        3
 73
     0
 74
     0
 95
       17
 96
       13
 40
0.0
 40
0.0
 40
0.0
 40
0.0
 40
0.3527777776895833
 40
0.3527777776895833
 40
0.3527777776895833
 40
0.7055555553791667
 40
0.7055555553791667
 40
0.7055555553791667
 40
1.05833333306875
 40
1.05833333306875
 40
1.05833333306875
 40
1.411111110758333
 40
1.411111110758333
 40
1.411111110758333
 40
1.411111110758333
 10
-114.0126738420238
 20
100.186486717185
 10
-114.0126738420238
 20
100.0018428283422
 10
-113.8624610642833
 20
99.85127727282456
 10
-113.6774643976627
 20
99.85127727282456
 10
-113.4927852310425
 20
99.85127727282456
 10
-113.3422549533023
 20
100.0018428283422
 10
-113.3422549533023
 20
100.186486717185
 10
-113.3422549533023
 20
100.3711306060277
 10
-113.4927852310425
 20
100.5220489393231
 10
-113.6774643976627
 20
100.5220489393231
 10
-113.8624610642833
 20
100.5220489393231
 10
-114.0126738420238
 20
100.3711306060277
 10
-114.0126738420238
 20
100.186486717185
 97
        0
 72
     1
 10
-114.0126738420238
 20
100.186486717185
 11
-114.0126738420238
 21
100.186486717185
 97
        0
 75
     2
 76
     1
 98
        0
  0
ENDBLK
  5
5B
330
58
100
AcDbEntity
  8
0
100
AcDbBlockEnd
  0
BLOCK
  5
10B
330
109
100
AcDbEntity
  8
0
100
AcDbBlockBegin
  2
block 5
 70
     0
 10
0.0
 20
0.0
 30
0.0
  3
block 5
  1

  0
POLYLINE
  5
10D
330
109
100
AcDbEntity
  8
Layer 3
 62
   250
420
  2301728
370
    35
100
AcDb2dPolyline
 66
     1
 10
0.0
 20
0.0
 30
0.0
  0
VERTEX
  5
10E
330
10D
100
AcDbEntity
  8
Layer 3
 62
   250
420
  2301728
370
    35
100
AcDbVertex
100
AcDb2dVertex
 10
-180.6560853530671
 20
136.5719341439642
 30
0.0
  0
VERTEX
  5
10F
330
10D
100
AcDbEntity
  8
Layer 3
 62
   250
420
  2301728
370
    35
100
AcDbVertex
100
AcDb2dVertex
 10
-130.6560442533334
 20
144.9056388573686
 30
0.0
  0
VERTEX
  5
110
330
10D
100
AcDbEntity
  8
Layer 3
 62
   250
420
  2301728
370
    35
100
AcDbVertex
100
AcDb2dVertex
 10
-130.656044255578
 20
128.2389702504242
 30
0.0
  0
SEQEND
  5
111
330
10D
100
AcDbEntity
  8
Layer 3
 62
   250
420
  2301728
370
    35
  0
POLYLINE
  5
112
330
109
100
AcDbEntity
  8
Layer 3
 62
   250
420
  2301728
370
    35
100
AcDb2dPolyline
 66
     1
 10
0.0
 20
0.0
 30
0.0
  0
VERTEX
  5
113
330
112
100
AcDbEntity
  8
Layer 3
 62
   250
420
  2301728
370
    35
100
AcDbVertex
100
AcDb2dVertex
 10
-130.656044255578
 20
128.2389702504242
 30
0.0
  0
VERTEX
  5
114
330
112
100
AcDbEntity
  8
Layer 3
 62
   250
420
  2301728
370
    35
100
AcDbVertex
100
AcDb2dVertex
 10
-180.6560853530671
 20
136.5719341439642
 30
0.0
  0
SEQEND
  5
115
330
112
100
AcDbEntity
  8
Layer 3
 62
   250
420
  2301728
370
    35
  0
ENDBLK
  5
10C
330
109
100
AcDbEntity
  8
0
100
AcDbBlockEnd
  0
BLOCK
  5
182
330
180
100
AcDbEntity
  8
0
100
AcDbBlockBegin
  2
block 6
 70
     0
 10
0.0
 20
0.0
 30
0.0
  3
block 6
  1

  0
POLYLINE
  5
184
330
180
100
AcDbEntity
  8
Layer 3
 62
    18
420
    65793
370
    25
100
AcDb2dPolyline
 66
     1
 10
0.0
 20
0.0
 30
0.0
  0
VERTEX
  5
185
330
184
100
AcDbEntity
  8
Layer 3
 62
    18
420
    65793
370
    25
100
AcDbVertex
100
AcDb2dVertex
 10
-139.402182793384
 20
-17.99166601089235
 30
0.0
  0
VERTEX
  5
186
330
184
100
AcDbEntity
  8
Layer 3
 62
    18
420
    65793
370
    25
100
AcDbVertex
100
AcDb2dVertex
 10
-126.7768136980356
 20
-17.99166601032573
 30
0.0
  0
SEQEND
  5
187
330
184
100
AcDbEntity
  8
Layer 3
 62
    18
420
    65793
370
    25
  0
POLYLINE
  5
188
330
180
100
AcDbEntity
  8
Layer 3
 62
    18
420
    65793
370
    25
100
AcDb2dPolyline
 66
     1
 10
0.0
 20
0.0
 30
0.0
  0
VERTEX
  5
189
330
188
100
AcDbEntity
  8
Layer 3
 62
    18
420
    65793
370
    25
100
AcDbVertex
100
AcDb2dVertex
 10
-120.3947264210742
 20
-17.99166601003889
 30
0.0
  0
VERTEX
  5
18A
330
188
100
AcDbEntity
  8
Layer 3
 62
    18
420
    65793
370
    25
100
AcDbVertex
100
AcDb2dVertex
 10
-107.6306224342352
 20
-17.99166600946586
 30
0.0
  0
SEQEND
  5
18B
330
188
100
AcDbEntity
  8
Layer 3
 62
    18
420
    65793
370
    25
  0
POLYLINE
  5
18C
330
180
100
AcDbEntity
  8
Layer 3
 62
    18
420
    65793
370
    25
100
AcDb2dPolyline
 66
     1
 10
0.0
 20
0.0
 30
0.0
  0
VERTEX
  5
18D
330
18C
100
AcDbEntity
  8
Layer 3
 62
    18
420
    65793
370
    25
100
AcDbVertex
100
AcDb2dVertex
 10
-101.2485351572718
 20
-17.99166600917902
 30
0.0
  0
VERTEX
  5
18E
330
18C
100
AcDbEntity
  8
Layer 3
 62
    18
420
    65793
370
    25
100
AcDbVertex
100
AcDb2dVertex
 10
-88.62316606192408
 20
-17.9916660086124
 30
0.0
  0
SEQEND
  5
18F
330
18C
100
AcDbEntity
  8
Layer 3
 62
    18
420
    65793
370
    25
  0
ENDBLK
  5
183
330
180
100
AcDbEntity
  8
0
100
AcDbBlockEnd
  0
BLOCK
  5
193
330
191
100
AcDbEntity
  8
0
100
AcDbBlockBegin
  2
block 7
 70
     0
 10
0.0
 20
0.0
 30
0.0
  3
block 7
  1

  0
POLYLINE
  5
195
330
191
100
AcDbEntity
  8
Layer 2
  6
AI-Linetype-2
 62
    18
420
    65793
370
    25
100
AcDb2dPolyline
 66
     1
 10
0.0
 20
0.0
 30
0.0
  0
VERTEX
  5
196
330
195
100
AcDbEntity
  8
Layer 2
  6
AI-Linetype-2
 62
    18
420
    65793
370
    25
100
AcDbVertex
100
AcDb2dVertex
 10
-199.0818421483619
 20
-120.2365621730923
 30
0.0
  0
VERTEX
  5
197
330
195
100
AcDbEntity
  8
Layer 2
  6
AI-Linetype-2
 62
    18
420
    65793
370
    25
100
AcDbVertex
100
AcDb2dVertex
 10
-199.0818421483619
 20
329.8377556266068
 30
0.0
  0
SEQEND
  5
199
330
195
100
AcDbEntity
  8
Layer 2
  6
AI-Linetype-2
 62
    18
420
    65793
370
    25
  0
SPLINE
  5
19A
330
191
100
AcDbEntity
  8
Layer 2
  6
AI-Linetype-3
 62
    18
420
    65793
370
    25
100
AcDbSpline
210
0.0
220
0.0
230
1.0
 70
     8
 71
     3
 72
     8
 73
     4
 74
     0
 42
0.0000000001
 43
0.0000000001
 12
1.0
 22
0.0
 32
0.0
 13
1.0
 23
0.0
 33
0.0
 40
0.0
 40
0.0
 40
0.0
 40
0.0
 40
1.0
 40
1.0
 40
1.0
 40
1.0
 10
-199.0818421483619
 20
329.8377556266068
 30
0.0
 10
-198.9942595734877
 20
340.9204576502862
 30
0.0
 10
-190.0382731105054
 20
349.8764088297251
 30
0.0
 10
-178.9905017945015
 20
349.8764088297251
 30
0.0
  0
POLYLINE
  5
19C
330
191
100
AcDbEntity
  8
Layer 2
  6
AI-Linetype-4
 62
    18
420
    65793
370
    25
100
AcDb2dPolyline
 66
     1
 10
0.0
 20
0.0
 30
0.0
  0
VERTEX
  5
19D
330
19C
100
AcDbEntity
  8
Layer 2
  6
AI-Linetype-4
 62
    18
420
    65793
370
    25
100
AcDbVertex
100
AcDb2dVertex
 10
-179.1032150729516
 20
349.8163562393593
 30
0.0
  0
VERTEX
  5
19E
330
19C
100
AcDbEntity
  8
Layer 2
  6
AI-Linetype-4
 62
    18
420
    65793
370
    25
100
AcDbVertex
100
AcDb2dVertex
 10
561.0775278975062
 20
349.8163562393593
 30
0.0
  0
SEQEND
  5
1A0
330
19C
100
AcDbEntity
  8
Layer 2
  6
AI-Linetype-4
 62
    18
420
    65793
370
    25
  0
SPLINE
  5
1A1
330
191
100
AcDbEntity
  8
Layer 2
  6
AI-Linetype-5
 62
    18
420
    65793
370
    25
100
AcDbSpline
210
0.0
220
0.0
230
1.0
 70
     8
 71
     3
 72
     8
 73
     4
 74
     0
 42
0.0000000001
 43
0.0000000001
 12
1.0
 22
0.0
 32
0.0
 13
1.0
 23
0.0
 33
0.0
 40
0.0
 40
0.0
 40
0.0
 40
0.0
 40
1.0
 40
1.0
 40
1.0
 40
1.0
 10
561.0775278975062
 20
349.8163562393593
 30
0.0
 10
572.1962897022403
 20
349.8764088297251
 30
0.0
 10
581.1523114487642
 20
340.9204576502862
 30
0.0
 10
581.1523114487642
 20
329.8726157671953
 30
0.0
  0
POLYLINE
  5
1A3
330
191
100
AcDbEntity
  8
Layer 2
  6
AI-Linetype-6
 62
    18
420
    65793
370
    25
100
AcDb2dPolyline
 66
     1
 10
0.0
 20
0.0
 30
0.0
  0
VERTEX
  5
1A4
330
1A3
100
AcDbEntity
  8
Layer 2
  6
AI-Linetype-6
 62
    18
420
    65793
370
    25
100
AcDbVertex
100
AcDb2dVertex
 10
581.0561990773435
 20
329.8377556266068
 30
0.0
  0
VERTEX
  5
1A5
330
1A3
100
AcDbEntity
  8
Layer 2
  6
AI-Linetype-6
 62
    18
420
    65793
370
    25
100
AcDbVertex
100
AcDb2dVertex
 10
581.0561990773435
 20
-120.2365621730923
 30
0.0
  0
SEQEND
  5
1A7
330
1A3
100
AcDbEntity
  8
Layer 2
  6
AI-Linetype-6
 62
    18
420
    65793
370
    25
  0
SPLINE
  5
1A8
330
191
100
AcDbEntity
  8
Layer 2
  6
AI-Linetype-7
 62
    18
420
    65793
370
    25
100
AcDbSpline
210
0.0
220
0.0
230
1.0
 70
     8
 71
     3
 72
     8
 73
     4
 74
     0
 42
0.0000000001
 43
0.0000000001
 12
1.0
 22
0.0
 32
0.0
 13
1.0
 23
0.0
 33
0.0
 40
0.0
 40
0.0
 40
0.0
 40
0.0
 40
1.0
 40
1.0
 40
1.0
 40
1.0
 10
581.0561990773435
 20
-120.2365621730923
 30
0.0
 10
581.1523114487642
 20
-131.2596526506936
 30
0.0
 10
572.1962897022403
 20
-140.2156567554478
 30
0.0
 10
561.1485183862328
 20
-140.2156567554478
 30
0.0
  0
POLYLINE
  5
1AA
330
191
100
AcDbEntity
  8
Layer 2
  6
AI-Linetype-8
 62
    18
420
    65793
370
    25
100
AcDb2dPolyline
 66
     1
 10
0.0
 20
0.0
 30
0.0
  0
VERTEX
  5
1AB
330
1AA
100
AcDbEntity
  8
Layer 2
  6
AI-Linetype-8
 62
    18
420
    65793
370
    25
100
AcDbVertex
100
AcDb2dVertex
 10
561.0775278975062
 20
-140.3539329608793
 30
0.0
  0
VERTEX
  5
1AC
330
1AA
100
AcDbEntity
  8
Layer 2
  6
AI-Linetype-8
 62
    18
420
    65793
370
    25
100
AcDbVertex
100
AcDb2dVertex
 10
-179.1032150729516
 20
-140.3539329608793
 30
0.0
  0
SEQEND
  5
1AE
330
1AA
100
AcDbEntity
  8
Layer 2
  6
AI-Linetype-8
 62
    18
420
    65793
370
    25
  0
SPLINE
  5
1AF
330
191
100
AcDbEntity
  8
Layer 2
  6
AI-Linetype-9
 62
    18
420
    65793
370
    25
100
AcDbSpline
210
0.0
220
0.0
230
1.0
 70
     8
 71
     3
 72
     8
 73
     4
 74
     0
 42
0.0000000001
 43
0.0000000001
 12
1.0
 22
0.0
 32
0.0
 13
1.0
 23
0.0
 33
0.0
 40
0.0
 40
0.0
 40
0.0
 40
0.0
 40
1.0
 40
1.0
 40
1.0
 40
1.0
 10
-179.1032150729516
 20
-140.3539329608793
 30
0.0
 10
-190.0382731105054
 20
-140.2156567554478
 30
0.0
 10
-198.9942595734877
 20
-131.2596526506936
 30
0.0
 10
-198.9942595734877
 20
-120.2118813346899
 30
0.0
  0
POLYLINE
  5
1B1
330
191
100
AcDbEntity
  8
Layer 2
 62
    18
420
    65793
370
    25
100
AcDb2dPolyline
 66
     1
 10
0.0
 20
0.0
 30
0.0
  0
VERTEX
  5
1B2
330
1B1
100
AcDbEntity
  8
Layer 2
 62
    18
420
    65793
370
    25
100
AcDbVertex
100
AcDb2dVertex
 10
-209.0711600965096
 20
-145.3486007558388
 30
0.0
  0
VERTEX
  5
1B3
330
1B1
100
AcDbEntity
  8
Layer 2
 62
    18
420
    65793
370
    25
100
AcDbVertex
100
AcDb2dVertex
 10
-209.0711600965096
 20
-136.6079497564311
 30
0.0
  0
SEQEND
  5
1B4
330
1B1
100
AcDbEntity
  8
Layer 2
 62
    18
420
    65793
370
    25
  0
POLYLINE
  5
1B5
330
191
100
AcDbEntity
  8
Layer 2
 62
    18
420
    65793
370
    25
100
AcDb2dPolyline
 66
     1
 10
0.0
 20
0.0
 30
0.0
  0
VERTEX
  5
1B6
330
1B5
100
AcDbEntity
  8
Layer 2
 62
    18
420
    65793
370
    25
100
AcDbVertex
100
AcDb2dVertex
 10
-209.0711600965096
 20
-130.2258801212403
 30
0.0
  0
VERTEX
  5
1B7
330
1B5
100
AcDbEntity
  8
Layer 2
 62
    18
420
    65793
370
    25
100
AcDbVertex
100
AcDb2dVertex
 10
-209.0711600965096
 20
-117.461758492629
 30
0.0
  0
SEQEND
  5
1B8
330
1B5
100
AcDbEntity
  8
Layer 2
 62
    18
420
    65793
370
    25
  0
POLYLINE
  5
1B9
330
191
100
AcDbEntity
  8
Layer 2
 62
    18
420
    65793
370
    25
100
AcDb2dPolyline
 66
     1
 10
0.0
 20
0.0
 30
0.0
  0
VERTEX
  5
1BA
330
1B9
100
AcDbEntity
  8
Layer 2
 62
    18
420
    65793
370
    25
100
AcDbVertex
100
AcDb2dVertex
 10
-209.0711600965096
 20
-111.2184237489292
 30
0.0
  0
VERTEX
  5
1BB
330
1B9
100
AcDbEntity
  8
Layer 2
 62
    18
420
    65793
370
    25
100
AcDbVertex
100
AcDb2dVertex
 10
-209.0711600965096
 20
-98.45428447854697
 30
0.0
  0
SEQEND
  5
1BC
330
1B9
100
AcDbEntity
  8
Layer 2
 62
    18
420
    65793
370
    25
  0
POLYLINE
  5
1BD
330
191
100
AcDbEntity
  8
Layer 2
 62
    18
420
    65793
370
    25
100
AcDb2dPolyline
 66
     1
 10
0.0
 20
0.0
 30
0.0
  0
VERTEX
  5
1BE
330
1BD
100
AcDbEntity
  8
Layer 2
 62
    18
420
    65793
370
    25
100
AcDbVertex
100
AcDb2dVertex
 10
-209.0711600965096
 20
-92.07223248512713
 30
0.0
  0
VERTEX
  5
1BF
330
1BD
100
AcDbEntity
  8
Layer 2
 62
    18
420
    65793
370
    25
100
AcDbVertex
100
AcDb2dVertex
 10
-209.0711600965096
 20
-79.44682810623587
 30
0.0
  0
SEQEND
  5
1C0
330
1BD
100
AcDbEntity
  8
Layer 2
 62
    18
420
    65793
370
    25
  0
POLYLINE
  5
1C1
330
191
100
AcDbEntity
  8
Layer 2
 62
    18
420
    65793
370
    25
100
AcDb2dPolyline
 66
     1
 10
0.0
 20
0.0
 30
0.0
  0
VERTEX
  5
1C2
330
1C1
100
AcDbEntity
  8
Layer 2
 62
    18
420
    65793
370
    25
100
AcDbVertex
100
AcDb2dVertex
 10
-209.0711600965096
 20
-73.06477611281667
 30
0.0
  0
VERTEX
  5
1C3
330
1C1
100
AcDbEntity
  8
Layer 2
 62
    18
420
    65793
370
    25
100
AcDbVertex
100
AcDb2dVertex
 10
-209.0711600965096
 20
-60.30063684243382
 30
0.0
  0
SEQEND
  5
1C4
330
1C1
100
AcDbEntity
  8
Layer 2
 62
    18
420
    65793
370
    25
  0
POLYLINE
  5
1C5
330
191
100
AcDbEntity
  8
Layer 2
 62
    18
420
    65793
370
    25
100
AcDb2dPolyline
 66
     1
 10
0.0
 20
0.0
 30
0.0
  0
VERTEX
  5
1C6
330
1C5
100
AcDbEntity
  8
Layer 2
 62
    18
420
    65793
370
    25
100
AcDbVertex
100
AcDb2dVertex
 10
-209.0711600965096
 20
-54.05731974050685
 30
0.0
  0
VERTEX
  5
1C7
330
1C5
100
AcDbEntity
  8
Layer 2
 62
    18
420
    65793
370
    25
100
AcDbVertex
100
AcDb2dVertex
 10
-209.0711600965096
 20
-41.29318047012399
 30
0.0
  0
SEQEND
  5
1C8
330
1C5
100
AcDbEntity
  8
Layer 2
 62
    18
420
    65793
370
    25
  0
POLYLINE
  5
1C9
330
191
100
AcDbEntity
  8
Layer 2
 62
    18
420
    65793
370
    25
100
AcDb2dPolyline
 66
     1
 10
0.0
 20
0.0
 30
0.0
  0
VERTEX
  5
1CA
330
1C9
100
AcDbEntity
  8
Layer 2
 62
    18
420
    65793
370
    25
100
AcDbVertex
100
AcDb2dVertex
 10
-209.0711600965096
 20
-34.9111284767048
 30
0.0
  0
VERTEX
  5
1CB
330
1C9
100
AcDbEntity
  8
Layer 2
 62
    18
420
    65793
370
    25
100
AcDbVertex
100
AcDb2dVertex
 10
-209.0711600965096
 20
-22.28575938135671
 30
0.0
  0
SEQEND
  5
1CC
330
1C9
100
AcDbEntity
  8
Layer 2
 62
    18
420
    65793
370
    25
  0
POLYLINE
  5
1CD
330
191
100
AcDbEntity
  8
Layer 2
 62
    18
420
    65793
370
    25
100
AcDb2dPolyline
 66
     1
 10
0.0
 20
0.0
 30
0.0
  0
VERTEX
  5
1CE
330
1CD
100
AcDbEntity
  8
Layer 2
 62
    18
420
    65793
370
    25
100
AcDbVertex
100
AcDb2dVertex
 10
-209.0711600965096
 20
-15.90367210439369
 30
0.0
  0
VERTEX
  5
1CF
330
1CD
100
AcDbEntity
  8
Layer 2
 62
    18
420
    65793
370
    25
100
AcDbVertex
100
AcDb2dVertex
 10
-209.0711600965096
 20
-3.278303009045608
 30
0.0
  0
SEQEND
  5
1D0
330
1CD
100
AcDbEntity
  8
Layer 2
 62
    18
420
    65793
370
    25
  0
POLYLINE
  5
1D1
330
191
100
AcDbEntity
  8
Layer 2
 62
    18
420
    65793
370
    25
100
AcDb2dPolyline
 66
     1
 10
0.0
 20
0.0
 30
0.0
  0
VERTEX
  5
1D2
330
1D1
100
AcDbEntity
  8
Layer 2
 62
    18
420
    65793
370
    25
100
AcDbVertex
100
AcDb2dVertex
 10
-209.0711600965096
 20
3.10378426791613
 30
0.0
  0
VERTEX
  5
1D3
330
1D1
100
AcDbEntity
  8
Layer 2
 62
    18
420
    65793
370
    25
100
AcDbVertex
100
AcDb2dVertex
 10
-209.0711600965096
 20
15.86788825475516
 30
0.0
  0
SEQEND
  5
1D4
330
1D1
100
AcDbEntity
  8
Layer 2
 62
    18
420
    65793
370
    25
  0
POLYLINE
  5
1D5
330
191
100
AcDbEntity
  8
Layer 2
 62
    18
420
    65793
370
    25
100
AcDb2dPolyline
 66
     1
 10
0.0
 20
0.0
 30
0.0
  0
VERTEX
  5
1D6
330
1D5
100
AcDbEntity
  8
Layer 2
 62
    18
420
    65793
370
    25
100
AcDbVertex
100
AcDb2dVertex
 10
-209.0711600965096
 20
22.24997553171882
 30
0.0
  0
VERTEX
  5
1D7
330
1D5
100
AcDbEntity
  8
Layer 2
 62
    18
420
    65793
370
    25
100
AcDbVertex
100
AcDb2dVertex
 10
-209.0711600965096
 20
34.87534462706627
 30
0.0
  0
SEQEND
  5
1D8
330
1D5
100
AcDbEntity
  8
Layer 2
 62
    18
420
    65793
370
    25
  0
POLYLINE
  5
1D9
330
191
100
AcDbEntity
  8
Layer 2
 62
    18
420
    65793
370
    25
100
AcDb2dPolyline
 66
     1
 10
0.0
 20
0.0
 30
0.0
  0
VERTEX
  5
1DA
330
1D9
100
AcDbEntity
  8
Layer 2
 62
    18
420
    65793
370
    25
100
AcDbVertex
100
AcDb2dVertex
 10
-209.0711600965096
 20
41.25743190402929
 30
0.0
  0
VERTEX
  5
1DB
330
1D9
100
AcDbEntity
  8
Layer 2
 62
    18
420
    65793
370
    25
100
AcDbVertex
100
AcDb2dVertex
 10
-209.0711600965096
 20
53.88280099937673
 30
0.0
  0
SEQEND
  5
1DC
330
1D9
100
AcDbEntity
  8
Layer 2
 62
    18
420
    65793
370
    25
  0
POLYLINE
  5
1DD
330
191
100
AcDbEntity
  8
Layer 2
 62
    18
420
    65793
370
    25
100
AcDb2dPolyline
 66
     1
 10
0.0
 20
0.0
 30
0.0
  0
VERTEX
  5
1DE
330
1DD
100
AcDbEntity
  8
Layer 2
 62
    18
420
    65793
370
    25
100
AcDbVertex
100
AcDb2dVertex
 10
-209.0711600965096
 20
60.26488827633975
 30
0.0
  0
VERTEX
  5
1DF
330
1DD
100
AcDbEntity
  8
Layer 2
 62
    18
420
    65793
370
    25
100
AcDbVertex
100
AcDb2dVertex
 10
-209.0711600965096
 20
73.02899226317878
 30
0.0
  0
SEQEND
  5
1E0
330
1DD
100
AcDbEntity
  8
Layer 2
 62
    18
420
    65793
370
    25
  0
POLYLINE
  5
1E1
330
191
100
AcDbEntity
  8
Layer 2
 62
    18
420
    65793
370
    25
100
AcDb2dPolyline
 66
     1
 10
0.0
 20
0.0
 30
0.0
  0
VERTEX
  5
1E2
330
1E1
100
AcDbEntity
  8
Layer 2
 62
    18
420
    65793
370
    25
100
AcDbVertex
100
AcDb2dVertex
 10
-209.0711600965096
 20
79.4110795401418
 30
0.0
  0
VERTEX
  5
1E3
330
1E1
100
AcDbEntity
  8
Layer 2
 62
    18
420
    65793
370
    25
100
AcDbVertex
100
AcDb2dVertex
 10
-209.0711600965096
 20
92.03644863548861
 30
0.0
  0
SEQEND
  5
1E4
330
1E1
100
AcDbEntity
  8
Layer 2
 62
    18
420
    65793
370
    25
  0
POLYLINE
  5
1E5
330
191
100
AcDbEntity
  8
Layer 2
 62
    18
420
    65793
370
    25
100
AcDb2dPolyline
 66
     1
 10
0.0
 20
0.0
 30
0.0
  0
VERTEX
  5
1E6
330
1E5
100
AcDbEntity
  8
Layer 2
 62
    18
420
    65793
370
    25
100
AcDbVertex
100
AcDb2dVertex
 10
-209.0711600965096
 20
98.41853591245163
 30
0.0
  0
VERTEX
  5
1E7
330
1E5
100
AcDbEntity
  8
Layer 2
 62
    18
420
    65793
370
    25
100
AcDbVertex
100
AcDb2dVertex
 10
-209.0711600965096
 20
111.0439050077997
 30
0.0
  0
SEQEND
  5
1E8
330
1E5
100
AcDbEntity
  8
Layer 2
 62
    18
420
    65793
370
    25
  0
POLYLINE
  5
1E9
330
191
100
AcDbEntity
  8
Layer 2
 62
    18
420
    65793
370
    25
100
AcDb2dPolyline
 66
     1
 10
0.0
 20
0.0
 30
0.0
  0
VERTEX
  5
1EA
330
1E9
100
AcDbEntity
  8
Layer 2
 62
    18
420
    65793
370
    25
100
AcDbVertex
100
AcDb2dVertex
 10
-209.0711600965096
 20
117.4259570012195
 30
0.0
  0
VERTEX
  5
1EB
330
1E9
100
AcDbEntity
  8
Layer 2
 62
    18
420
    65793
370
    25
100
AcDbVertex
100
AcDb2dVertex
 10
-209.0711600965096
 20
130.1900962716018
 30
0.0
  0
SEQEND
  5
1EC
330
1E9
100
AcDbEntity
  8
Layer 2
 62
    18
420
    65793
370
    25
  0
POLYLINE
  5
1ED
330
191
100
AcDbEntity
  8
Layer 2
 62
    18
420
    65793
370
    25
100
AcDb2dPolyline
 66
     1
 10
0.0
 20
0.0
 30
0.0
  0
VERTEX
  5
1EE
330
1ED
100
AcDbEntity
  8
Layer 2
 62
    18
420
    65793
370
    25
100
AcDbVertex
100
AcDb2dVertex
 10
-209.0711600965096
 20
136.5721835485648
 30
0.0
  0
VERTEX
  5
1EF
330
1ED
100
AcDbEntity
  8
Layer 2
 62
    18
420
    65793
370
    25
100
AcDbVertex
100
AcDb2dVertex
 10
-209.0711600965096
 20
149.1975526439122
 30
0.0
  0
SEQEND
  5
1F0
330
1ED
100
AcDbEntity
  8
Layer 2
 62
    18
420
    65793
370
    25
  0
POLYLINE
  5
1F1
330
191
100
AcDbEntity
  8
Layer 2
 62
    18
420
    65793
370
    25
100
AcDb2dPolyline
 66
     1
 10
0.0
 20
0.0
 30
0.0
  0
VERTEX
  5
1F2
330
1F1
100
AcDbEntity
  8
Layer 2
 62
    18
420
    65793
370
    25
100
AcDbVertex
100
AcDb2dVertex
 10
-209.0711600965096
 20
155.5796046373321
 30
0.0
  0
VERTEX
  5
1F3
330
1F1
100
AcDbEntity
  8
Layer 2
 62
    18
420
    65793
370
    25
100
AcDbVertex
100
AcDb2dVertex
 10
-209.0711600965096
 20
168.205009016222
 30
0.0
  0
SEQEND
  5
1F4
330
1F1
100
AcDbEntity
  8
Layer 2
 62
    18
420
    65793
370
    25
  0
POLYLINE
  5
1F5
330
191
100
AcDbEntity
  8
Layer 2
 62
    18
420
    65793
370
    25
100
AcDb2dPolyline
 66
     1
 10
0.0
 20
0.0
 30
0.0
  0
VERTEX
  5
1F6
330
1F5
100
AcDbEntity
  8
Layer 2
 62
    18
420
    65793
370
    25
100
AcDbVertex
100
AcDb2dVertex
 10
-209.0711600965096
 20
174.5870610096419
 30
0.0
  0
VERTEX
  5
1F7
330
1F5
100
AcDbEntity
  8
Layer 2
 62
    18
420
    65793
370
    25
100
AcDbVertex
100
AcDb2dVertex
 10
-209.0711600965096
 20
187.3512002800248
 30
0.0
  0
SEQEND
  5
1F8
330
1F5
100
AcDbEntity
  8
Layer 2
 62
    18
420
    65793
370
    25
  0
POLYLINE
  5
1F9
330
191
100
AcDbEntity
  8
Layer 2
 62
    18
420
    65793
370
    25
100
AcDb2dPolyline
 66
     1
 10
0.0
 20
0.0
 30
0.0
  0
VERTEX
  5
1FA
330
1F9
100
AcDbEntity
  8
Layer 2
 62
    18
420
    65793
370
    25
100
AcDbVertex
100
AcDb2dVertex
 10
-209.0711600965096
 20
193.7332522734439
 30
0.0
  0
VERTEX
  5
1FB
330
1F9
100
AcDbEntity
  8
Layer 2
 62
    18
420
    65793
370
    25
100
AcDbVertex
100
AcDb2dVertex
 10
-209.0711600965096
 20
206.358621368792
 30
0.0
  0
SEQEND
  5
1FC
330
1F9
100
AcDbEntity
  8
Layer 2
 62
    18
420
    65793
370
    25
  0
POLYLINE
  5
1FD
330
191
100
AcDbEntity
  8
Layer 2
 62
    18
420
    65793
370
    25
100
AcDb2dPolyline
 66
     1
 10
0.0
 20
0.0
 30
0.0
  0
VERTEX
  5
1FE
330
1FD
100
AcDbEntity
  8
Layer 2
 62
    18
420
    65793
370
    25
100
AcDbVertex
100
AcDb2dVertex
 10
-209.0711600965096
 20
212.7407086457547
 30
0.0
  0
VERTEX
  5
1FF
330
1FD
100
AcDbEntity
  8
Layer 2
 62
    18
420
    65793
370
    25
100
AcDbVertex
100
AcDb2dVertex
 10
-209.0711600965096
 20
225.3660777411018
 30
0.0
  0
SEQEND
  5
200
330
1FD
100
AcDbEntity
  8
Layer 2
 62
    18
420
    65793
370
    25
  0
POLYLINE
  5
201
330
191
100
AcDbEntity
  8
Layer 2
 62
    18
420
    65793
370
    25
100
AcDb2dPolyline
 66
     1
 10
0.0
 20
0.0
 30
0.0
  0
VERTEX
  5
202
330
201
100
AcDbEntity
  8
Layer 2
 62
    18
420
    65793
370
    25
100
AcDbVertex
100
AcDb2dVertex
 10
-209.0711600965096
 20
231.7481650180655
 30
0.0
  0
VERTEX
  5
203
330
201
100
AcDbEntity
  8
Layer 2
 62
    18
420
    65793
370
    25
100
AcDbVertex
100
AcDb2dVertex
 10
-209.0711600965096
 20
244.5122690049049
 30
0.0
  0
SEQEND
  5
204
330
201
100
AcDbEntity
  8
Layer 2
 62
    18
420
    65793
370
    25
  0
POLYLINE
  5
205
330
191
100
AcDbEntity
  8
Layer 2
 62
    18
420
    65793
370
    25
100
AcDb2dPolyline
 66
     1
 10
0.0
 20
0.0
 30
0.0
  0
VERTEX
  5
206
330
205
100
AcDbEntity
  8
Layer 2
 62
    18
420
    65793
370
    25
100
AcDbVertex
100
AcDb2dVertex
 10
-209.0711600965096
 20
250.8943562818669
 30
0.0
  0
VERTEX
  5
207
330
205
100
AcDbEntity
  8
Layer 2
 62
    18
420
    65793
370
    25
100
AcDbVertex
100
AcDb2dVertex
 10
-209.0711600965096
 20
263.5197253772147
 30
0.0
  0
SEQEND
  5
208
330
205
100
AcDbEntity
  8
Layer 2
 62
    18
420
    65793
370
    25
  0
POLYLINE
  5
209
330
191
100
AcDbEntity
  8
Layer 2
 62
    18
420
    65793
370
    25
100
AcDb2dPolyline
 66
     1
 10
0.0
 20
0.0
 30
0.0
  0
VERTEX
  5
20A
330
209
100
AcDbEntity
  8
Layer 2
 62
    18
420
    65793
370
    25
100
AcDbVertex
100
AcDb2dVertex
 10
-209.0711600965096
 20
269.9018126541774
 30
0.0
  0
VERTEX
  5
20B
330
209
100
AcDbEntity
  8
Layer 2
 62
    18
420
    65793
370
    25
100
AcDbVertex
100
AcDb2dVertex
 10
-209.0711600965096
 20
282.5271817495255
 30
0.0
  0
SEQEND
  5
20C
330
209
100
AcDbEntity
  8
Layer 2
 62
    18
420
    65793
370
    25
  0
POLYLINE
  5
20D
330
191
100
AcDbEntity
  8
Layer 2
 62
    18
420
    65793
370
    25
100
AcDb2dPolyline
 66
     1
 10
0.0
 20
0.0
 30
0.0
  0
VERTEX
  5
20E
330
20D
100
AcDbEntity
  8
Layer 2
 62
    18
420
    65793
370
    25
100
AcDbVertex
100
AcDb2dVertex
 10
-209.0711600965096
 20
288.9092690264878
 30
0.0
  0
VERTEX
  5
20F
330
20D
100
AcDbEntity
  8
Layer 2
 62
    18
420
    65793
370
    25
100
AcDbVertex
100
AcDb2dVertex
 10
-209.0711600965096
 20
301.6733730133275
 30
0.0
  0
SEQEND
  5
210
330
20D
100
AcDbEntity
  8
Layer 2
 62
    18
420
    65793
370
    25
  0
POLYLINE
  5
211
330
191
100
AcDbEntity
  8
Layer 2
 62
    18
420
    65793
370
    25
100
AcDb2dPolyline
 66
     1
 10
0.0
 20
0.0
 30
0.0
  0
VERTEX
  5
212
330
211
100
AcDbEntity
  8
Layer 2
 62
    18
420
    65793
370
    25
100
AcDbVertex
100
AcDb2dVertex
 10
-209.0711600965096
 20
308.0554602902902
 30
0.0
  0
VERTEX
  5
213
330
211
100
AcDbEntity
  8
Layer 2
 62
    18
420
    65793
370
    25
100
AcDbVertex
100
AcDb2dVertex
 10
-209.0711600965096
 20
320.680829385638
 30
0.0
  0
SEQEND
  5
214
330
211
100
AcDbEntity
  8
Layer 2
 62
    18
420
    65793
370
    25
  0
POLYLINE
  5
215
330
191
100
AcDbEntity
  8
Layer 2
 62
    18
420
    65793
370
    25
100
AcDb2dPolyline
 66
     1
 10
0.0
 20
0.0
 30
0.0
  0
VERTEX
  5
216
330
215
100
AcDbEntity
  8
Layer 2
 62
    18
420
    65793
370
    25
100
AcDbVertex
100
AcDb2dVertex
 10
-209.0711600965096
 20
327.0629166626003
 30
0.0
  0
VERTEX
  5
217
330
215
100
AcDbEntity
  8
Layer 2
 62
    18
420
    65793
370
    25
100
AcDbVertex
100
AcDb2dVertex
 10
-209.0711600965096
 20
339.6882857579481
 30
0.0
  0
SEQEND
  5
218
330
215
100
AcDbEntity
  8
Layer 2
 62
    18
420
    65793
370
    25
  0
POLYLINE
  5
219
330
191
100
AcDbEntity
  8
Layer 2
 62
    18
420
    65793
370
    25
100
AcDb2dPolyline
 66
     1
 10
0.0
 20
0.0
 30
0.0
  0
VERTEX
  5
21A
330
219
100
AcDbEntity
  8
Layer 2
 62
    18
420
    65793
370
    25
100
AcDbVertex
100
AcDb2dVertex
 10
-209.0711600965096
 20
346.0703730349108
 30
0.0
  0
VERTEX
  5
21B
330
219
100
AcDbEntity
  8
Layer 2
 62
    18
420
    65793
370
    25
100
AcDbVertex
100
AcDb2dVertex
 10
-209.0711600965096
 20
354.8110240343198
 30
0.0
  0
SEQEND
  5
21C
330
219
100
AcDbEntity
  8
Layer 2
 62
    18
420
    65793
370
    25
  0
SPLINE
  5
21D
330
191
100
AcDbEntity
  8
Layer 2
 62
    18
420
    65793
370
    25
100
AcDbSpline
210
0.0
220
0.0
230
1.0
 70
     8
 71
     3
 72
     8
 73
     4
 74
     0
 42
0.0000000001
 43
0.0000000001
 12
1.0
 22
0.0
 32
0.0
 13
1.0
 23
0.0
 33
0.0
 40
0.0
 40
0.0
 40
0.0
 40
0.0
 40
1.0
 40
1.0
 40
1.0
 40
1.0
 10
-209.0711600965096
 20
354.8110240343198
 30
0.0
 10
-208.999596250205
 20
357.6392822825859
 30
0.0
 10
-206.7606084553456
 20
359.8783053609907
 30
0.0
 10
-203.9986568054584
 20
359.8783053609907
 30
0.0
  0
POLYLINE
  5
21E
330
191
100
AcDbEntity
  8
Layer 2
 62
    18
420
    65793
370
    25
100
AcDb2dPolyline
 66
     1
 10
0.0
 20
0.0
 30
0.0
  0
VERTEX
  5
21F
330
21E
100
AcDbEntity
  8
Layer 2
 62
    18
420
    65793
370
    25
100
AcDbVertex
100
AcDb2dVertex
 10
-204.0765011224356
 20
359.8056918292789
 30
0.0
  0
VERTEX
  5
220
330
21E
100
AcDbEntity
  8
Layer 2
 62
    18
420
    65793
370
    25
100
AcDbVertex
100
AcDb2dVertex
 10
-193.25474736268
 20
359.8056918292789
 30
0.0
  0
SEQEND
  5
221
330
21E
100
AcDbEntity
  8
Layer 2
 62
    18
420
    65793
370
    25
  0
POLYLINE
  5
222
330
191
100
AcDbEntity
  8
Layer 2
 62
    18
420
    65793
370
    25
100
AcDb2dPolyline
 66
     1
 10
0.0
 20
0.0
 30
0.0
  0
VERTEX
  5
223
330
222
100
AcDbEntity
  8
Layer 2
 62
    18
420
    65793
370
    25
100
AcDbVertex
100
AcDb2dVertex
 10
-186.8726865483753
 20
359.8056918292789
 30
0.0
  0
VERTEX
  5
224
330
222
100
AcDbEntity
  8
Layer 2
 62
    18
420
    65793
370
    25
100
AcDbVertex
100
AcDb2dVertex
 10
-174.2472821694841
 20
359.8056918292789
 30
0.0
  0
SEQEND
  5
225
330
222
100
AcDbEntity
  8
Layer 2
 62
    18
420
    65793
370
    25
  0
POLYLINE
  5
226
330
191
100
AcDbEntity
  8
Layer 2
 62
    18
420
    65793
370
    25
100
AcDb2dPolyline
 66
     1
 10
0.0
 20
0.0
 30
0.0
  0
VERTEX
  5
227
330
226
100
AcDbEntity
  8
Layer 2
 62
    18
420
    65793
370
    25
100
AcDbVertex
100
AcDb2dVertex
 10
-167.8652301760645
 20
359.8056918292789
 30
0.0
  0
VERTEX
  5
228
330
226
100
AcDbEntity
  8
Layer 2
 62
    18
420
    65793
370
    25
100
AcDbVertex
100
AcDb2dVertex
 10
-155.101090905682
 20
359.8056918292789
 30
0.0
  0
SEQEND
  5
229
330
226
100
AcDbEntity
  8
Layer 2
 62
    18
420
    65793
370
    25
  0
POLYLINE
  5
22A
330
191
100
AcDbEntity
  8
Layer 2
 62
    18
420
    65793
370
    25
100
AcDb2dPolyline
 66
     1
 10
0.0
 20
0.0
 30
0.0
  0
VERTEX
  5
22B
330
22A
100
AcDbEntity
  8
Layer 2
 62
    18
420
    65793
370
    25
100
AcDbVertex
100
AcDb2dVertex
 10
-148.7190389122625
 20
359.8056918292789
 30
0.0
  0
VERTEX
  5
22C
330
22A
100
AcDbEntity
  8
Layer 2
 62
    18
420
    65793
370
    25
100
AcDbVertex
100
AcDb2dVertex
 10
-136.0936345333712
 20
359.8056918292789
 30
0.0
  0
SEQEND
  5
22D
330
22A
100
AcDbEntity
  8
Layer 2
 62
    18
420
    65793
370
    25
  0
POLYLINE
  5
22E
330
191
100
AcDbEntity
  8
Layer 2
 62
    18
420
    65793
370
    25
100
AcDb2dPolyline
 66
     1
 10
0.0
 20
0.0
 30
0.0
  0
VERTEX
  5
22F
330
22E
100
AcDbEntity
  8
Layer 2
 62
    18
420
    65793
370
    25
100
AcDbVertex
100
AcDb2dVertex
 10
-129.7115825399517
 20
359.8056918292789
 30
0.0
  0
VERTEX
  5
230
330
22E
100
AcDbEntity
  8
Layer 2
 62
    18
420
    65793
370
    25
100
AcDbVertex
100
AcDb2dVertex
 10
-117.086195802832
 20
359.8056918292789
 30
0.0
  0
SEQEND
  5
231
330
22E
100
AcDbEntity
  8
Layer 2
 62
    18
420
    65793
370
    25
  0
POLYLINE
  5
232
330
191
100
AcDbEntity
  8
Layer 2
 62
    18
420
    65793
370
    25
100
AcDb2dPolyline
 66
     1
 10
0.0
 20
0.0
 30
0.0
  0
VERTEX
  5
233
330
232
100
AcDbEntity
  8
Layer 2
 62
    18
420
    65793
370
    25
100
AcDbVertex
100
AcDb2dVertex
 10
-110.7041261676419
 20
359.8056918292789
 30
0.0
  0
VERTEX
  5
234
330
232
100
AcDbEntity
  8
Layer 2
 62
    18
420
    65793
370
    25
100
AcDbVertex
100
AcDb2dVertex
 10
-97.94000453903094
 20
359.8056918292789
 30
0.0
  0
SEQEND
  5
235
330
232
100
AcDbEntity
  8
Layer 2
 62
    18
420
    65793
370
    25
  0
POLYLINE
  5
236
330
191
100
AcDbEntity
  8
Layer 2
 62
    18
420
    65793
370
    25
100
AcDb2dPolyline
 66
     1
 10
0.0
 20
0.0
 30
0.0
  0
VERTEX
  5
237
330
236
100
AcDbEntity
  8
Layer 2
 62
    18
420
    65793
370
    25
100
AcDbVertex
100
AcDb2dVertex
 10
-91.55793490383887
 20
359.8056918292789
 30
0.0
  0
VERTEX
  5
238
330
236
100
AcDbEntity
  8
Layer 2
 62
    18
420
    65793
370
    25
100
AcDbVertex
100
AcDb2dVertex
 10
-78.93254816672015
 20
359.8056918292789
 30
0.0
  0
SEQEND
  5
239
330
236
100
AcDbEntity
  8
Layer 2
 62
    18
420
    65793
370
    25
  0
POLYLINE
  5
23A
330
191
100
AcDbEntity
  8
Layer 2
 62
    18
420
    65793
370
    25
100
AcDb2dPolyline
 66
     1
 10
0.0
 20
0.0
 30
0.0
  0
VERTEX
  5
23B
330
23A
100
AcDbEntity
  8
Layer 2
 62
    18
420
    65793
370
    25
100
AcDbVertex
100
AcDb2dVertex
 10
-72.55047853152905
 20
359.8056918292789
 30
0.0
  0
VERTEX
  5
23C
330
23A
100
AcDbEntity
  8
Layer 2
 62
    18
420
    65793
370
    25
100
AcDbVertex
100
AcDb2dVertex
 10
-59.92509179440937
 20
359.8056918292789
 30
0.0
  0
SEQEND
  5
23D
330
23A
100
AcDbEntity
  8
Layer 2
 62
    18
420
    65793
370
    25
  0
POLYLINE
  5
23E
330
191
100
AcDbEntity
  8
Layer 2
 62
    18
420
    65793
370
    25
100
AcDb2dPolyline
 66
     1
 10
0.0
 20
0.0
 30
0.0
  0
VERTEX
  5
23F
330
23E
100
AcDbEntity
  8
Layer 2
 62
    18
420
    65793
370
    25
100
AcDbVertex
100
AcDb2dVertex
 10
-53.54302215921923
 20
359.8056918292789
 30
0.0
  0
VERTEX
  5
240
330
23E
100
AcDbEntity
  8
Layer 2
 62
    18
420
    65793
370
    25
100
AcDbVertex
100
AcDb2dVertex
 10
-40.77888288883668
 20
359.8056918292789
 30
0.0
  0
SEQEND
  5
241
330
23E
100
AcDbEntity
  8
Layer 2
 62
    18
420
    65793
370
    25
  0
POLYLINE
  5
242
330
191
100
AcDbEntity
  8
Layer 2
 62
    18
420
    65793
370
    25
100
AcDb2dPolyline
 66
     1
 10
0.0
 20
0.0
 30
0.0
  0
VERTEX
  5
243
330
242
100
AcDbEntity
  8
Layer 2
 62
    18
420
    65793
370
    25
100
AcDbVertex
100
AcDb2dVertex
 10
-34.39683089541621
 20
359.8056918292789
 30
0.0
  0
VERTEX
  5
244
330
242
100
AcDbEntity
  8
Layer 2
 62
    18
420
    65793
370
    25
100
AcDbVertex
100
AcDb2dVertex
 10
-21.7714265165259
 20
359.8056918292789
 30
0.0
  0
SEQEND
  5
245
330
242
100
AcDbEntity
  8
Layer 2
 62
    18
420
    65793
370
    25
  0
POLYLINE
  5
246
330
191
100
AcDbEntity
  8
Layer 2
 62
    18
420
    65793
370
    25
100
AcDb2dPolyline
 66
     1
 10
0.0
 20
0.0
 30
0.0
  0
VERTEX
  5
247
330
246
100
AcDbEntity
  8
Layer 2
 62
    18
420
    65793
370
    25
100
AcDbVertex
100
AcDb2dVertex
 10
-15.38937452310639
 20
359.8056918292789
 30
0.0
  0
VERTEX
  5
248
330
246
100
AcDbEntity
  8
Layer 2
 62
    18
420
    65793
370
    25
100
AcDbVertex
100
AcDb2dVertex
 10
-2.764005427758303
 20
359.8056918292789
 30
0.0
  0
SEQEND
  5
249
330
246
100
AcDbEntity
  8
Layer 2
 62
    18
420
    65793
370
    25
  0
POLYLINE
  5
24A
330
191
100
AcDbEntity
  8
Layer 2
 62
    18
420
    65793
370
    25
100
AcDb2dPolyline
 66
     1
 10
0.0
 20
0.0
 30
0.0
  0
VERTEX
  5
24B
330
24A
100
AcDbEntity
  8
Layer 2
 62
    18
420
    65793
370
    25
100
AcDbVertex
100
AcDb2dVertex
 10
3.618081849204398
 20
359.8056918292789
 30
0.0
  0
VERTEX
  5
24C
330
24A
100
AcDbEntity
  8
Layer 2
 62
    18
420
    65793
370
    25
100
AcDbVertex
100
AcDb2dVertex
 10
16.38218583604375
 20
359.8056918292789
 30
0.0
  0
SEQEND
  5
24D
330
24A
100
AcDbEntity
  8
Layer 2
 62
    18
420
    65793
370
    25
  0
POLYLINE
  5
24E
330
191
100
AcDbEntity
  8
Layer 2
 62
    18
420
    65793
370
    25
100
AcDb2dPolyline
 66
     1
 10
0.0
 20
0.0
 30
0.0
  0
VERTEX
  5
24F
330
24E
100
AcDbEntity
  8
Layer 2
 62
    18
420
    65793
370
    25
100
AcDbVertex
100
AcDb2dVertex
 10
22.76427311300645
 20
359.8056918292789
 30
0.0
  0
VERTEX
  5
250
330
24E
100
AcDbEntity
  8
Layer 2
 62
    18
420
    65793
370
    25
100
AcDbVertex
100
AcDb2dVertex
 10
35.38964220835357
 20
359.8056918292789
 30
0.0
  0
SEQEND
  5
251
330
24E
100
AcDbEntity
  8
Layer 2
 62
    18
420
    65793
370
    25
  0
POLYLINE
  5
252
330
191
100
AcDbEntity
  8
Layer 2
 62
    18
420
    65793
370
    25
100
AcDb2dPolyline
 66
     1
 10
0.0
 20
0.0
 30
0.0
  0
VERTEX
  5
253
330
252
100
AcDbEntity
  8
Layer 2
 62
    18
420
    65793
370
    25
100
AcDbVertex
100
AcDb2dVertex
 10
41.77172948531724
 20
359.8056918292789
 30
0.0
  0
VERTEX
  5
254
330
252
100
AcDbEntity
  8
Layer 2
 62
    18
420
    65793
370
    25
100
AcDbVertex
100
AcDb2dVertex
 10
54.39709858066404
 20
359.8056918292789
 30
0.0
  0
SEQEND
  5
255
330
252
100
AcDbEntity
  8
Layer 2
 62
    18
420
    65793
370
    25
  0
POLYLINE
  5
256
330
191
100
AcDbEntity
  8
Layer 2
 62
    18
420
    65793
370
    25
100
AcDb2dPolyline
 66
     1
 10
0.0
 20
0.0
 30
0.0
  0
VERTEX
  5
257
330
256
100
AcDbEntity
  8
Layer 2
 62
    18
420
    65793
370
    25
100
AcDbVertex
100
AcDb2dVertex
 10
60.77918585762706
 20
359.8056918292789
 30
0.0
  0
VERTEX
  5
258
330
256
100
AcDbEntity
  8
Layer 2
 62
    18
420
    65793
370
    25
100
AcDbVertex
100
AcDb2dVertex
 10
73.54328984446609
 20
359.8056918292789
 30
0.0
  0
SEQEND
  5
259
330
256
100
AcDbEntity
  8
Layer 2
 62
    18
420
    65793
370
    25
  0
POLYLINE
  5
25A
330
191
100
AcDbEntity
  8
Layer 2
 62
    18
420
    65793
370
    25
100
AcDb2dPolyline
 66
     1
 10
0.0
 20
0.0
 30
0.0
  0
VERTEX
  5
25B
330
25A
100
AcDbEntity
  8
Layer 2
 62
    18
420
    65793
370
    25
100
AcDbVertex
100
AcDb2dVertex
 10
79.92537712142911
 20
359.8056918292789
 30
0.0
  0
VERTEX
  5
25C
330
25A
100
AcDbEntity
  8
Layer 2
 62
    18
420
    65793
370
    25
100
AcDbVertex
100
AcDb2dVertex
 10
92.55074621677655
 20
359.8056918292789
 30
0.0
  0
SEQEND
  5
25D
330
25A
100
AcDbEntity
  8
Layer 2
 62
    18
420
    65793
370
    25
  0
POLYLINE
  5
25E
330
191
100
AcDbEntity
  8
Layer 2
 62
    18
420
    65793
370
    25
100
AcDb2dPolyline
 66
     1
 10
0.0
 20
0.0
 30
0.0
  0
VERTEX
  5
25F
330
25E
100
AcDbEntity
  8
Layer 2
 62
    18
420
    65793
370
    25
100
AcDbVertex
100
AcDb2dVertex
 10
98.93283349374022
 20
359.8056918292789
 30
0.0
  0
VERTEX
  5
260
330
25E
100
AcDbEntity
  8
Layer 2
 62
    18
420
    65793
370
    25
100
AcDbVertex
100
AcDb2dVertex
 10
111.558202589087
 20
359.8056918292789
 30
0.0
  0
SEQEND
  5
261
330
25E
100
AcDbEntity
  8
Layer 2
 62
    18
420
    65793
370
    25
  0
POLYLINE
  5
262
330
191
100
AcDbEntity
  8
Layer 2
 62
    18
420
    65793
370
    25
100
AcDb2dPolyline
 66
     1
 10
0.0
 20
0.0
 30
0.0
  0
VERTEX
  5
263
330
262
100
AcDbEntity
  8
Layer 2
 62
    18
420
    65793
370
    25
100
AcDbVertex
100
AcDb2dVertex
 10
117.94028986605
 20
359.8056918292789
 30
0.0
  0
VERTEX
  5
264
330
262
100
AcDbEntity
  8
Layer 2
 62
    18
420
    65793
370
    25
100
AcDbVertex
100
AcDb2dVertex
 10
130.7043938528891
 20
359.8056918292789
 30
0.0
  0
SEQEND
  5
265
330
262
100
AcDbEntity
  8
Layer 2
 62
    18
420
    65793
370
    25
  0
POLYLINE
  5
266
330
191
100
AcDbEntity
  8
Layer 2
 62
    18
420
    65793
370
    25
100
AcDb2dPolyline
 66
     1
 10
0.0
 20
0.0
 30
0.0
  0
VERTEX
  5
267
330
266
100
AcDbEntity
  8
Layer 2
 62
    18
420
    65793
370
    25
100
AcDbVertex
100
AcDb2dVertex
 10
137.0864811298521
 20
359.8056918292789
 30
0.0
  0
VERTEX
  5
268
330
266
100
AcDbEntity
  8
Layer 2
 62
    18
420
    65793
370
    25
100
AcDbVertex
100
AcDb2dVertex
 10
149.7118502252002
 20
359.8056918292789
 30
0.0
  0
SEQEND
  5
269
330
266
100
AcDbEntity
  8
Layer 2
 62
    18
420
    65793
370
    25
  0
POLYLINE
  5
26A
330
191
100
AcDbEntity
  8
Layer 2
 62
    18
420
    65793
370
    25
100
AcDb2dPolyline
 66
     1
 10
0.0
 20
0.0
 30
0.0
  0
VERTEX
  5
26B
330
26A
100
AcDbEntity
  8
Layer 2
 62
    18
420
    65793
370
    25
100
AcDbVertex
100
AcDb2dVertex
 10
156.0939375021626
 20
359.8056918292789
 30
0.0
  0
VERTEX
  5
26C
330
26A
100
AcDbEntity
  8
Layer 2
 62
    18
420
    65793
370
    25
100
AcDbVertex
100
AcDb2dVertex
 10
168.71930659751
 20
359.8056918292789
 30
0.0
  0
SEQEND
  5
26D
330
26A
100
AcDbEntity
  8
Layer 2
 62
    18
420
    65793
370
    25
  0
POLYLINE
  5
26E
330
191
100
AcDbEntity
  8
Layer 2
 62
    18
420
    65793
370
    25
100
AcDb2dPolyline
 66
     1
 10
0.0
 20
0.0
 30
0.0
  0
VERTEX
  5
26F
330
26E
100
AcDbEntity
  8
Layer 2
 62
    18
420
    65793
370
    25
100
AcDbVertex
100
AcDb2dVertex
 10
175.1013585909305
 20
359.8056918292789
 30
0.0
  0
VERTEX
  5
270
330
26E
100
AcDbEntity
  8
Layer 2
 62
    18
420
    65793
370
    25
100
AcDbVertex
100
AcDb2dVertex
 10
187.8654978613127
 20
359.8056918292789
 30
0.0
  0
SEQEND
  5
271
330
26E
100
AcDbEntity
  8
Layer 2
 62
    18
420
    65793
370
    25
  0
POLYLINE
  5
272
330
191
100
AcDbEntity
  8
Layer 2
 62
    18
420
    65793
370
    25
100
AcDb2dPolyline
 66
     1
 10
0.0
 20
0.0
 30
0.0
  0
VERTEX
  5
273
330
272
100
AcDbEntity
  8
Layer 2
 62
    18
420
    65793
370
    25
100
AcDbVertex
100
AcDb2dVertex
 10
194.2475851382744
 20
359.8056918292789
 30
0.0
  0
VERTEX
  5
274
330
272
100
AcDbEntity
  8
Layer 2
 62
    18
420
    65793
370
    25
100
AcDbVertex
100
AcDb2dVertex
 10
206.8729542336225
 20
359.8056918292789
 30
0.0
  0
SEQEND
  5
275
330
272
100
AcDbEntity
  8
Layer 2
 62
    18
420
    65793
370
    25
  0
POLYLINE
  5
276
330
191
100
AcDbEntity
  8
Layer 2
 62
    18
420
    65793
370
    25
100
AcDb2dPolyline
 66
     1
 10
0.0
 20
0.0
 30
0.0
  0
VERTEX
  5
277
330
276
100
AcDbEntity
  8
Layer 2
 62
    18
420
    65793
370
    25
100
AcDbVertex
100
AcDb2dVertex
 10
213.2550062270423
 20
359.8056918292789
 30
0.0
  0
VERTEX
  5
278
330
276
100
AcDbEntity
  8
Layer 2
 62
    18
420
    65793
370
    25
100
AcDbVertex
100
AcDb2dVertex
 10
225.8804106059336
 20
359.8056918292789
 30
0.0
  0
SEQEND
  5
279
330
276
100
AcDbEntity
  8
Layer 2
 62
    18
420
    65793
370
    25
  0
POLYLINE
  5
27A
330
191
100
AcDbEntity
  8
Layer 2
 62
    18
420
    65793
370
    25
100
AcDb2dPolyline
 66
     1
 10
0.0
 20
0.0
 30
0.0
  0
VERTEX
  5
27B
330
27A
100
AcDbEntity
  8
Layer 2
 62
    18
420
    65793
370
    25
100
AcDbVertex
100
AcDb2dVertex
 10
232.2624625993528
 20
359.8056918292789
 30
0.0
  0
VERTEX
  5
27C
330
27A
100
AcDbEntity
  8
Layer 2
 62
    18
420
    65793
370
    25
100
AcDbVertex
100
AcDb2dVertex
 10
245.0266018697357
 20
359.8056918292789
 30
0.0
  0
SEQEND
  5
27D
330
27A
100
AcDbEntity
  8
Layer 2
 62
    18
420
    65793
370
    25
  0
POLYLINE
  5
27E
330
191
100
AcDbEntity
  8
Layer 2
 62
    18
420
    65793
370
    25
100
AcDb2dPolyline
 66
     1
 10
0.0
 20
0.0
 30
0.0
  0
VERTEX
  5
27F
330
27E
100
AcDbEntity
  8
Layer 2
 62
    18
420
    65793
370
    25
100
AcDbVertex
100
AcDb2dVertex
 10
251.4086538631549
 20
359.8056918292789
 30
0.0
  0
VERTEX
  5
280
330
27E
100
AcDbEntity
  8
Layer 2
 62
    18
420
    65793
370
    25
100
AcDbVertex
100
AcDb2dVertex
 10
264.0340582420455
 20
359.8056918292789
 30
0.0
  0
SEQEND
  5
281
330
27E
100
AcDbEntity
  8
Layer 2
 62
    18
420
    65793
370
    25
  0
POLYLINE
  5
282
330
191
100
AcDbEntity
  8
Layer 2
 62
    18
420
    65793
370
    25
100
AcDb2dPolyline
 66
     1
 10
0.0
 20
0.0
 30
0.0
  0
VERTEX
  5
283
330
282
100
AcDbEntity
  8
Layer 2
 62
    18
420
    65793
370
    25
100
AcDbVertex
100
AcDb2dVertex
 10
270.4161455190079
 20
359.8056918292789
 30
0.0
  0
VERTEX
  5
284
330
282
100
AcDbEntity
  8
Layer 2
 62
    18
420
    65793
370
    25
100
AcDbVertex
100
AcDb2dVertex
 10
283.0415146143559
 20
359.8056918292789
 30
0.0
  0
SEQEND
  5
285
330
282
100
AcDbEntity
  8
Layer 2
 62
    18
420
    65793
370
    25
  0
POLYLINE
  5
286
330
191
100
AcDbEntity
  8
Layer 2
 62
    18
420
    65793
370
    25
100
AcDb2dPolyline
 66
     1
 10
0.0
 20
0.0
 30
0.0
  0
VERTEX
  5
287
330
286
100
AcDbEntity
  8
Layer 2
 62
    18
420
    65793
370
    25
100
AcDbVertex
100
AcDb2dVertex
 10
289.423601891319
 20
359.8056918292789
 30
0.0
  0
VERTEX
  5
288
330
286
100
AcDbEntity
  8
Layer 2
 62
    18
420
    65793
370
    25
100
AcDbVertex
100
AcDb2dVertex
 10
302.187705878158
 20
359.8056918292789
 30
0.0
  0
SEQEND
  5
289
330
286
100
AcDbEntity
  8
Layer 2
 62
    18
420
    65793
370
    25
  0
POLYLINE
  5
28A
330
191
100
AcDbEntity
  8
Layer 2
 62
    18
420
    65793
370
    25
100
AcDb2dPolyline
 66
     1
 10
0.0
 20
0.0
 30
0.0
  0
VERTEX
  5
28B
330
28A
100
AcDbEntity
  8
Layer 2
 62
    18
420
    65793
370
    25
100
AcDbVertex
100
AcDb2dVertex
 10
308.569793155121
 20
359.8056918292789
 30
0.0
  0
VERTEX
  5
28C
330
28A
100
AcDbEntity
  8
Layer 2
 62
    18
420
    65793
370
    25
100
AcDbVertex
100
AcDb2dVertex
 10
321.1951622504691
 20
359.8056918292789
 30
0.0
  0
SEQEND
  5
28D
330
28A
100
AcDbEntity
  8
Layer 2
 62
    18
420
    65793
370
    25
  0
POLYLINE
  5
28E
330
191
100
AcDbEntity
  8
Layer 2
 62
    18
420
    65793
370
    25
100
AcDb2dPolyline
 66
     1
 10
0.0
 20
0.0
 30
0.0
  0
VERTEX
  5
28F
330
28E
100
AcDbEntity
  8
Layer 2
 62
    18
420
    65793
370
    25
100
AcDbVertex
100
AcDb2dVertex
 10
327.5772495274309
 20
359.8056918292789
 30
0.0
  0
VERTEX
  5
290
330
28E
100
AcDbEntity
  8
Layer 2
 62
    18
420
    65793
370
    25
100
AcDbVertex
100
AcDb2dVertex
 10
340.2026186227789
 20
359.8056918292789
 30
0.0
  0
SEQEND
  5
291
330
28E
100
AcDbEntity
  8
Layer 2
 62
    18
420
    65793
370
    25
  0
POLYLINE
  5
292
330
191
100
AcDbEntity
  8
Layer 2
 62
    18
420
    65793
370
    25
100
AcDb2dPolyline
 66
     1
 10
0.0
 20
0.0
 30
0.0
  0
VERTEX
  5
293
330
292
100
AcDbEntity
  8
Layer 2
 62
    18
420
    65793
370
    25
100
AcDbVertex
100
AcDb2dVertex
 10
346.5847058997413
 20
359.8056918292789
 30
0.0
  0
VERTEX
  5
294
330
292
100
AcDbEntity
  8
Layer 2
 62
    18
420
    65793
370
    25
100
AcDbVertex
100
AcDb2dVertex
 10
359.348809886581
 20
359.8056918292789
 30
0.0
  0
SEQEND
  5
295
330
292
100
AcDbEntity
  8
Layer 2
 62
    18
420
    65793
370
    25
  0
POLYLINE
  5
296
330
191
100
AcDbEntity
  8
Layer 2
 62
    18
420
    65793
370
    25
100
AcDb2dPolyline
 66
     1
 10
0.0
 20
0.0
 30
0.0
  0
VERTEX
  5
297
330
296
100
AcDbEntity
  8
Layer 2
 62
    18
420
    65793
370
    25
100
AcDbVertex
100
AcDb2dVertex
 10
365.7308971635421
 20
359.8056918292789
 30
0.0
  0
VERTEX
  5
298
330
296
100
AcDbEntity
  8
Layer 2
 62
    18
420
    65793
370
    25
100
AcDbVertex
100
AcDb2dVertex
 10
378.3562662588902
 20
359.8056918292789
 30
0.0
  0
SEQEND
  5
299
330
296
100
AcDbEntity
  8
Layer 2
 62
    18
420
    65793
370
    25
  0
POLYLINE
  5
29A
330
191
100
AcDbEntity
  8
Layer 2
 62
    18
420
    65793
370
    25
100
AcDb2dPolyline
 66
     1
 10
0.0
 20
0.0
 30
0.0
  0
VERTEX
  5
29B
330
29A
100
AcDbEntity
  8
Layer 2
 62
    18
420
    65793
370
    25
100
AcDbVertex
100
AcDb2dVertex
 10
384.7383535358551
 20
359.8056918292789
 30
0.0
  0
VERTEX
  5
29C
330
29A
100
AcDbEntity
  8
Layer 2
 62
    18
420
    65793
370
    25
100
AcDbVertex
100
AcDb2dVertex
 10
397.3637226312026
 20
359.8056918292789
 30
0.0
  0
SEQEND
  5
29D
330
29A
100
AcDbEntity
  8
Layer 2
 62
    18
420
    65793
370
    25
  0
POLYLINE
  5
29E
330
191
100
AcDbEntity
  8
Layer 2
 62
    18
420
    65793
370
    25
100
AcDb2dPolyline
 66
     1
 10
0.0
 20
0.0
 30
0.0
  0
VERTEX
  5
29F
330
29E
100
AcDbEntity
  8
Layer 2
 62
    18
420
    65793
370
    25
100
AcDbVertex
100
AcDb2dVertex
 10
403.7457393410799
 20
359.8056918292789
 30
0.0
  0
VERTEX
  5
2A0
330
29E
100
AcDbEntity
  8
Layer 2
 62
    18
420
    65793
370
    25
100
AcDbVertex
100
AcDb2dVertex
 10
416.5099138950021
 20
359.8056918292789
 30
0.0
  0
SEQEND
  5
2A1
330
29E
100
AcDbEntity
  8
Layer 2
 62
    18
420
    65793
370
    25
  0
POLYLINE
  5
2A2
330
191
100
AcDbEntity
  8
Layer 2
 62
    18
420
    65793
370
    25
100
AcDb2dPolyline
 66
     1
 10
0.0
 20
0.0
 30
0.0
  0
VERTEX
  5
2A3
330
2A2
100
AcDbEntity
  8
Layer 2
 62
    18
420
    65793
370
    25
100
AcDbVertex
100
AcDb2dVertex
 10
422.8920011719663
 20
359.8056918292789
 30
0.0
  0
VERTEX
  5
2A4
330
2A2
100
AcDbEntity
  8
Layer 2
 62
    18
420
    65793
370
    25
100
AcDbVertex
100
AcDb2dVertex
 10
435.5173702673144
 20
359.8056918292789
 30
0.0
  0
SEQEND
  5
2A5
330
2A2
100
AcDbEntity
  8
Layer 2
 62
    18
420
    65793
370
    25
  0
POLYLINE
  5
2A6
330
191
100
AcDbEntity
  8
Layer 2
 62
    18
420
    65793
370
    25
100
AcDb2dPolyline
 66
     1
 10
0.0
 20
0.0
 30
0.0
  0
VERTEX
  5
2A7
330
2A6
100
AcDbEntity
  8
Layer 2
 62
    18
420
    65793
370
    25
100
AcDbVertex
100
AcDb2dVertex
 10
441.8993869771917
 20
359.8056918292789
 30
0.0
  0
VERTEX
  5
2A8
330
2A6
100
AcDbEntity
  8
Layer 2
 62
    18
420
    65793
370
    25
100
AcDbVertex
100
AcDb2dVertex
 10
454.5248266396236
 20
359.8056918292789
 30
0.0
  0
SEQEND
  5
2A9
330
2A6
100
AcDbEntity
  8
Layer 2
 62
    18
420
    65793
370
    25
  0
POLYLINE
  5
2AA
330
191
100
AcDbEntity
  8
Layer 2
 62
    18
420
    65793
370
    25
100
AcDb2dPolyline
 66
     1
 10
0.0
 20
0.0
 30
0.0
  0
VERTEX
  5
2AB
330
2AA
100
AcDbEntity
  8
Layer 2
 62
    18
420
    65793
370
    25
100
AcDbVertex
100
AcDb2dVertex
 10
460.9068433495009
 20
359.8056918292789
 30
0.0
  0
VERTEX
  5
2AC
330
2AA
100
AcDbEntity
  8
Layer 2
 62
    18
420
    65793
370
    25
100
AcDbVertex
100
AcDb2dVertex
 10
473.6710179034263
 20
359.8056918292789
 30
0.0
  0
SEQEND
  5
2AD
330
2AA
100
AcDbEntity
  8
Layer 2
 62
    18
420
    65793
370
    25
  0
POLYLINE
  5
2AE
330
191
100
AcDbEntity
  8
Layer 2
 62
    18
420
    65793
370
    25
100
AcDb2dPolyline
 66
     1
 10
0.0
 20
0.0
 30
0.0
  0
VERTEX
  5
2AF
330
2AE
100
AcDbEntity
  8
Layer 2
 62
    18
420
    65793
370
    25
100
AcDbVertex
100
AcDb2dVertex
 10
480.0530346133029
 20
359.8056918292789
 30
0.0
  0
VERTEX
  5
2B0
330
2AE
100
AcDbEntity
  8
Layer 2
 62
    18
420
    65793
370
    25
100
AcDbVertex
100
AcDb2dVertex
 10
492.6784742757387
 20
359.8056918292789
 30
0.0
  0
SEQEND
  5
2B1
330
2AE
100
AcDbEntity
  8
Layer 2
 62
    18
420
    65793
370
    25
  0
POLYLINE
  5
2B2
330
191
100
AcDbEntity
  8
Layer 2
 62
    18
420
    65793
370
    25
100
AcDb2dPolyline
 66
     1
 10
0.0
 20
0.0
 30
0.0
  0
VERTEX
  5
2B3
330
2B2
100
AcDbEntity
  8
Layer 2
 62
    18
420
    65793
370
    25
100
AcDbVertex
100
AcDb2dVertex
 10
499.0604909856121
 20
359.8056918292789
 30
0.0
  0
VERTEX
  5
2B4
330
2B2
100
AcDbEntity
  8
Layer 2
 62
    18
420
    65793
370
    25
100
AcDbVertex
100
AcDb2dVertex
 10
511.6859306480479
 20
359.8056918292789
 30
0.0
  0
SEQEND
  5
2B5
330
2B2
100
AcDbEntity
  8
Layer 2
 62
    18
420
    65793
370
    25
  0
POLYLINE
  5
2B6
330
191
100
AcDbEntity
  8
Layer 2
 62
    18
420
    65793
370
    25
100
AcDb2dPolyline
 66
     1
 10
0.0
 20
0.0
 30
0.0
  0
VERTEX
  5
2B7
330
2B6
100
AcDbEntity
  8
Layer 2
 62
    18
420
    65793
370
    25
100
AcDbVertex
100
AcDb2dVertex
 10
518.0679473579252
 20
359.8056918292789
 30
0.0
  0
VERTEX
  5
2B8
330
2B6
100
AcDbEntity
  8
Layer 2
 62
    18
420
    65793
370
    25
100
AcDbVertex
100
AcDb2dVertex
 10
530.8321219118505
 20
359.8056918292789
 30
0.0
  0
SEQEND
  5
2B9
330
2B6
100
AcDbEntity
  8
Layer 2
 62
    18
420
    65793
370
    25
  0
POLYLINE
  5
2BA
330
191
100
AcDbEntity
  8
Layer 2
 62
    18
420
    65793
370
    25
100
AcDb2dPolyline
 66
     1
 10
0.0
 20
0.0
 30
0.0
  0
VERTEX
  5
2BB
330
2BA
100
AcDbEntity
  8
Layer 2
 62
    18
420
    65793
370
    25
100
AcDbVertex
100
AcDb2dVertex
 10
537.2141386217279
 20
359.8056918292789
 30
0.0
  0
VERTEX
  5
2BC
330
2BA
100
AcDbEntity
  8
Layer 2
 62
    18
420
    65793
370
    25
100
AcDbVertex
100
AcDb2dVertex
 10
549.8395782841598
 20
359.8056918292789
 30
0.0
  0
SEQEND
  5
2BD
330
2BA
100
AcDbEntity
  8
Layer 2
 62
    18
420
    65793
370
    25
  0
POLYLINE
  5
2BE
330
191
100
AcDbEntity
  8
Layer 2
 62
    18
420
    65793
370
    25
100
AcDb2dPolyline
 66
     1
 10
0.0
 20
0.0
 30
0.0
  0
VERTEX
  5
2BF
330
2BE
100
AcDbEntity
  8
Layer 2
 62
    18
420
    65793
370
    25
100
AcDbVertex
100
AcDb2dVertex
 10
556.221594994037
 20
359.8056918292789
 30
0.0
  0
VERTEX
  5
2C0
330
2BE
100
AcDbEntity
  8
Layer 2
 62
    18
420
    65793
370
    25
100
AcDbVertex
100
AcDb2dVertex
 10
568.8470346564728
 20
359.8056918292789
 30
0.0
  0
SEQEND
  5
2C1
330
2BE
100
AcDbEntity
  8
Layer 2
 62
    18
420
    65793
370
    25
  0
POLYLINE
  5
2C2
330
191
100
AcDbEntity
  8
Layer 2
 62
    18
420
    65793
370
    25
100
AcDb2dPolyline
 66
     1
 10
0.0
 20
0.0
 30
0.0
  0
VERTEX
  5
2C3
330
2C2
100
AcDbEntity
  8
Layer 2
 62
    18
420
    65793
370
    25
100
AcDbVertex
100
AcDb2dVertex
 10
575.2290513663456
 20
359.8056918292789
 30
0.0
  0
VERTEX
  5
2C4
330
2C2
100
AcDbEntity
  8
Layer 2
 62
    18
420
    65793
370
    25
100
AcDbVertex
100
AcDb2dVertex
 10
586.050866872303
 20
359.8056918292789
 30
0.0
  0
SEQEND
  5
2C5
330
2C2
100
AcDbEntity
  8
Layer 2
 62
    18
420
    65793
370
    25
  0
SPLINE
  5
2C6
330
191
100
AcDbEntity
  8
Layer 2
 62
    18
420
    65793
370
    25
100
AcDbSpline
210
0.0
220
0.0
230
1.0
 70
     8
 71
     3
 72
     8
 73
     4
 74
     0
 42
0.0000000001
 43
0.0000000001
 12
1.0
 22
0.0
 32
0.0
 13
1.0
 23
0.0
 33
0.0
 40
0.0
 40
0.0
 40
0.0
 40
0.0
 40
1.0
 40
1.0
 40
1.0
 40
1.0
 10
586.050866872303
 20
359.8056918292789
 30
0.0
 10
588.9116565473139
 20
359.8783053609907
 30
0.0
 10
591.1506796257187
 20
357.6392822825859
 30
0.0
 10
591.1506796257187
 20
354.877357095358
 30
0.0
  0
POLYLINE
  5
2C7
330
191
100
AcDbEntity
  8
Layer 2
 62
    18
420
    65793
370
    25
100
AcDb2dPolyline
 66
     1
 10
0.0
 20
0.0
 30
0.0
  0
VERTEX
  5
2C8
330
2C7
100
AcDbEntity
  8
Layer 2
 62
    18
420
    65793
370
    25
100
AcDbVertex
100
AcDb2dVertex
 10
591.0454641001742
 20
354.8110240343198
 30
0.0
  0
VERTEX
  5
2C9
330
2C7
100
AcDbEntity
  8
Layer 2
 62
    18
420
    65793
370
    25
100
AcDbVertex
100
AcDb2dVertex
 10
591.0454641001742
 20
346.0703730349108
 30
0.0
  0
SEQEND
  5
2CA
330
2C7
100
AcDbEntity
  8
Layer 2
 62
    18
420
    65793
370
    25
  0
POLYLINE
  5
2CB
330
191
100
AcDbEntity
  8
Layer 2
 62
    18
420
    65793
370
    25
100
AcDb2dPolyline
 66
     1
 10
0.0
 20
0.0
 30
0.0
  0
VERTEX
  5
2CC
330
2CB
100
AcDbEntity
  8
Layer 2
 62
    18
420
    65793
370
    25
100
AcDbVertex
100
AcDb2dVertex
 10
591.0454641001742
 20
339.6882857579481
 30
0.0
  0
VERTEX
  5
2CD
330
2CB
100
AcDbEntity
  8
Layer 2
 62
    18
420
    65793
370
    25
100
AcDbVertex
100
AcDb2dVertex
 10
591.0454641001742
 20
327.0629166626003
 30
0.0
  0
SEQEND
  5
2CE
330
2CB
100
AcDbEntity
  8
Layer 2
 62
    18
420
    65793
370
    25
  0
POLYLINE
  5
2CF
330
191
100
AcDbEntity
  8
Layer 2
 62
    18
420
    65793
370
    25
100
AcDb2dPolyline
 66
     1
 10
0.0
 20
0.0
 30
0.0
  0
VERTEX
  5
2D0
330
2CF
100
AcDbEntity
  8
Layer 2
 62
    18
420
    65793
370
    25
100
AcDbVertex
100
AcDb2dVertex
 10
591.0454641001742
 20
320.680829385638
 30
0.0
  0
VERTEX
  5
2D1
330
2CF
100
AcDbEntity
  8
Layer 2
 62
    18
420
    65793
370
    25
100
AcDbVertex
100
AcDb2dVertex
 10
591.0454641001742
 20
308.0554602902902
 30
0.0
  0
SEQEND
  5
2D2
330
2CF
100
AcDbEntity
  8
Layer 2
 62
    18
420
    65793
370
    25
  0
POLYLINE
  5
2D3
330
191
100
AcDbEntity
  8
Layer 2
 62
    18
420
    65793
370
    25
100
AcDb2dPolyline
 66
     1
 10
0.0
 20
0.0
 30
0.0
  0
VERTEX
  5
2D4
330
2D3
100
AcDbEntity
  8
Layer 2
 62
    18
420
    65793
370
    25
100
AcDbVertex
100
AcDb2dVertex
 10
591.0454641001742
 20
301.6733730133275
 30
0.0
  0
VERTEX
  5
2D5
330
2D3
100
AcDbEntity
  8
Layer 2
 62
    18
420
    65793
370
    25
100
AcDbVertex
100
AcDb2dVertex
 10
591.0454641001742
 20
288.9092690264878
 30
0.0
  0
SEQEND
  5
2D6
330
2D3
100
AcDbEntity
  8
Layer 2
 62
    18
420
    65793
370
    25
  0
POLYLINE
  5
2D7
330
191
100
AcDbEntity
  8
Layer 2
 62
    18
420
    65793
370
    25
100
AcDb2dPolyline
 66
     1
 10
0.0
 20
0.0
 30
0.0
  0
VERTEX
  5
2D8
330
2D7
100
AcDbEntity
  8
Layer 2
 62
    18
420
    65793
370
    25
100
AcDbVertex
100
AcDb2dVertex
 10
591.0454641001742
 20
282.5271817495255
 30
0.0
  0
VERTEX
  5
2D9
330
2D7
100
AcDbEntity
  8
Layer 2
 62
    18
420
    65793
370
    25
100
AcDbVertex
100
AcDb2dVertex
 10
591.0454641001742
 20
269.9018126541774
 30
0.0
  0
SEQEND
  5
2DA
330
2D7
100
AcDbEntity
  8
Layer 2
 62
    18
420
    65793
370
    25
  0
POLYLINE
  5
2DB
330
191
100
AcDbEntity
  8
Layer 2
 62
    18
420
    65793
370
    25
100
AcDb2dPolyline
 66
     1
 10
0.0
 20
0.0
 30
0.0
  0
VERTEX
  5
2DC
330
2DB
100
AcDbEntity
  8
Layer 2
 62
    18
420
    65793
370
    25
100
AcDbVertex
100
AcDb2dVertex
 10
591.0454641001742
 20
263.5197253772147
 30
0.0
  0
VERTEX
  5
2DD
330
2DB
100
AcDbEntity
  8
Layer 2
 62
    18
420
    65793
370
    25
100
AcDbVertex
100
AcDb2dVertex
 10
591.0454641001742
 20
250.8943562818669
 30
0.0
  0
SEQEND
  5
2DE
330
2DB
100
AcDbEntity
  8
Layer 2
 62
    18
420
    65793
370
    25
  0
POLYLINE
  5
2DF
330
191
100
AcDbEntity
  8
Layer 2
 62
    18
420
    65793
370
    25
100
AcDb2dPolyline
 66
     1
 10
0.0
 20
0.0
 30
0.0
  0
VERTEX
  5
2E0
330
2DF
100
AcDbEntity
  8
Layer 2
 62
    18
420
    65793
370
    25
100
AcDbVertex
100
AcDb2dVertex
 10
591.0454641001742
 20
244.5122690049049
 30
0.0
  0
VERTEX
  5
2E1
330
2DF
100
AcDbEntity
  8
Layer 2
 62
    18
420
    65793
370
    25
100
AcDbVertex
100
AcDb2dVertex
 10
591.0454641001742
 20
231.7481650180655
 30
0.0
  0
SEQEND
  5
2E2
330
2DF
100
AcDbEntity
  8
Layer 2
 62
    18
420
    65793
370
    25
  0
POLYLINE
  5
2E3
330
191
100
AcDbEntity
  8
Layer 2
 62
    18
420
    65793
370
    25
100
AcDb2dPolyline
 66
     1
 10
0.0
 20
0.0
 30
0.0
  0
VERTEX
  5
2E4
330
2E3
100
AcDbEntity
  8
Layer 2
 62
    18
420
    65793
370
    25
100
AcDbVertex
100
AcDb2dVertex
 10
591.0454641001742
 20
225.3660777411018
 30
0.0
  0
VERTEX
  5
2E5
330
2E3
100
AcDbEntity
  8
Layer 2
 62
    18
420
    65793
370
    25
100
AcDbVertex
100
AcDb2dVertex
 10
591.0454641001742
 20
212.7407086457547
 30
0.0
  0
SEQEND
  5
2E6
330
2E3
100
AcDbEntity
  8
Layer 2
 62
    18
420
    65793
370
    25
  0
POLYLINE
  5
2E7
330
191
100
AcDbEntity
  8
Layer 2
 62
    18
420
    65793
370
    25
100
AcDb2dPolyline
 66
     1
 10
0.0
 20
0.0
 30
0.0
  0
VERTEX
  5
2E8
330
2E7
100
AcDbEntity
  8
Layer 2
 62
    18
420
    65793
370
    25
100
AcDbVertex
100
AcDb2dVertex
 10
591.0454641001742
 20
206.358621368792
 30
0.0
  0
VERTEX
  5
2E9
330
2E7
100
AcDbEntity
  8
Layer 2
 62
    18
420
    65793
370
    25
100
AcDbVertex
100
AcDb2dVertex
 10
591.0454641001742
 20
193.7332522734439
 30
0.0
  0
SEQEND
  5
2EA
330
2E7
100
AcDbEntity
  8
Layer 2
 62
    18
420
    65793
370
    25
  0
POLYLINE
  5
2EB
330
191
100
AcDbEntity
  8
Layer 2
 62
    18
420
    65793
370
    25
100
AcDb2dPolyline
 66
     1
 10
0.0
 20
0.0
 30
0.0
  0
VERTEX
  5
2EC
330
2EB
100
AcDbEntity
  8
Layer 2
 62
    18
420
    65793
370
    25
100
AcDbVertex
100
AcDb2dVertex
 10
591.0454641001742
 20
187.3512002800248
 30
0.0
  0
VERTEX
  5
2ED
330
2EB
100
AcDbEntity
  8
Layer 2
 62
    18
420
    65793
370
    25
100
AcDbVertex
100
AcDb2dVertex
 10
591.0454641001742
 20
174.5870610096419
 30
0.0
  0
SEQEND
  5
2EE
330
2EB
100
AcDbEntity
  8
Layer 2
 62
    18
420
    65793
370
    25
  0
POLYLINE
  5
2EF
330
191
100
AcDbEntity
  8
Layer 2
 62
    18
420
    65793
370
    25
100
AcDb2dPolyline
 66
     1
 10
0.0
 20
0.0
 30
0.0
  0
VERTEX
  5
2F0
330
2EF
100
AcDbEntity
  8
Layer 2
 62
    18
420
    65793
370
    25
100
AcDbVertex
100
AcDb2dVertex
 10
591.0454641001742
 20
168.205009016222
 30
0.0
  0
VERTEX
  5
2F1
330
2EF
100
AcDbEntity
  8
Layer 2
 62
    18
420
    65793
370
    25
100
AcDbVertex
100
AcDb2dVertex
 10
591.0454641001742
 20
155.5796046373321
 30
0.0
  0
SEQEND
  5
2F2
330
2EF
100
AcDbEntity
  8
Layer 2
 62
    18
420
    65793
370
    25
  0
POLYLINE
  5
2F3
330
191
100
AcDbEntity
  8
Layer 2
 62
    18
420
    65793
370
    25
100
AcDb2dPolyline
 66
     1
 10
0.0
 20
0.0
 30
0.0
  0
VERTEX
  5
2F4
330
2F3
100
AcDbEntity
  8
Layer 2
 62
    18
420
    65793
370
    25
100
AcDbVertex
100
AcDb2dVertex
 10
591.0454641001742
 20
149.1975526439122
 30
0.0
  0
VERTEX
  5
2F5
330
2F3
100
AcDbEntity
  8
Layer 2
 62
    18
420
    65793
370
    25
100
AcDbVertex
100
AcDb2dVertex
 10
591.0454641001742
 20
136.5721835485648
 30
0.0
  0
SEQEND
  5
2F6
330
2F3
100
AcDbEntity
  8
Layer 2
 62
    18
420
    65793
370
    25
  0
POLYLINE
  5
2F7
330
191
100
AcDbEntity
  8
Layer 2
 62
    18
420
    65793
370
    25
100
AcDb2dPolyline
 66
     1
 10
0.0
 20
0.0
 30
0.0
  0
VERTEX
  5
2F8
330
2F7
100
AcDbEntity
  8
Layer 2
 62
    18
420
    65793
370
    25
100
AcDbVertex
100
AcDb2dVertex
 10
591.0454641001742
 20
130.1900962716018
 30
0.0
  0
VERTEX
  5
2F9
330
2F7
100
AcDbEntity
  8
Layer 2
 62
    18
420
    65793
370
    25
100
AcDbVertex
100
AcDb2dVertex
 10
591.0454641001742
 20
117.4259570012195
 30
0.0
  0
SEQEND
  5
2FA
330
2F7
100
AcDbEntity
  8
Layer 2
 62
    18
420
    65793
370
    25
  0
POLYLINE
  5
2FB
330
191
100
AcDbEntity
  8
Layer 2
 62
    18
420
    65793
370
    25
100
AcDb2dPolyline
 66
     1
 10
0.0
 20
0.0
 30
0.0
  0
VERTEX
  5
2FC
330
2FB
100
AcDbEntity
  8
Layer 2
 62
    18
420
    65793
370
    25
100
AcDbVertex
100
AcDb2dVertex
 10
591.0454641001742
 20
111.0439050077997
 30
0.0
  0
VERTEX
  5
2FD
330
2FB
100
AcDbEntity
  8
Layer 2
 62
    18
420
    65793
370
    25
100
AcDbVertex
100
AcDb2dVertex
 10
591.0454641001742
 20
98.41853591245163
 30
0.0
  0
SEQEND
  5
2FE
330
2FB
100
AcDbEntity
  8
Layer 2
 62
    18
420
    65793
370
    25
  0
POLYLINE
  5
2FF
330
191
100
AcDbEntity
  8
Layer 2
 62
    18
420
    65793
370
    25
100
AcDb2dPolyline
 66
     1
 10
0.0
 20
0.0
 30
0.0
  0
VERTEX
  5
300
330
2FF
100
AcDbEntity
  8
Layer 2
 62
    18
420
    65793
370
    25
100
AcDbVertex
100
AcDb2dVertex
 10
591.0454641001742
 20
92.03644863548861
 30
0.0
  0
VERTEX
  5
301
330
2FF
100
AcDbEntity
  8
Layer 2
 62
    18
420
    65793
370
    25
100
AcDbVertex
100
AcDb2dVertex
 10
591.0454641001742
 20
79.4110795401418
 30
0.0
  0
SEQEND
  5
302
330
2FF
100
AcDbEntity
  8
Layer 2
 62
    18
420
    65793
370
    25
  0
POLYLINE
  5
303
330
191
100
AcDbEntity
  8
Layer 2
 62
    18
420
    65793
370
    25
100
AcDb2dPolyline
 66
     1
 10
0.0
 20
0.0
 30
0.0
  0
VERTEX
  5
304
330
303
100
AcDbEntity
  8
Layer 2
 62
    18
420
    65793
370
    25
100
AcDbVertex
100
AcDb2dVertex
 10
591.0454641001742
 20
73.02899226317878
 30
0.0
  0
VERTEX
  5
305
330
303
100
AcDbEntity
  8
Layer 2
 62
    18
420
    65793
370
    25
100
AcDbVertex
100
AcDb2dVertex
 10
591.0454641001742
 20
60.26488827633975
 30
0.0
  0
SEQEND
  5
306
330
303
100
AcDbEntity
  8
Layer 2
 62
    18
420
    65793
370
    25
  0
POLYLINE
  5
307
330
191
100
AcDbEntity
  8
Layer 2
 62
    18
420
    65793
370
    25
100
AcDb2dPolyline
 66
     1
 10
0.0
 20
0.0
 30
0.0
  0
VERTEX
  5
308
330
307
100
AcDbEntity
  8
Layer 2
 62
    18
420
    65793
370
    25
100
AcDbVertex
100
AcDb2dVertex
 10
591.0454641001742
 20
53.88280099937673
 30
0.0
  0
VERTEX
  5
309
330
307
100
AcDbEntity
  8
Layer 2
 62
    18
420
    65793
370
    25
100
AcDbVertex
100
AcDb2dVertex
 10
591.0454641001742
 20
41.25743190402929
 30
0.0
  0
SEQEND
  5
30A
330
307
100
AcDbEntity
  8
Layer 2
 62
    18
420
    65793
370
    25
  0
POLYLINE
  5
30B
330
191
100
AcDbEntity
  8
Layer 2
 62
    18
420
    65793
370
    25
100
AcDb2dPolyline
 66
     1
 10
0.0
 20
0.0
 30
0.0
  0
VERTEX
  5
30C
330
30B
100
AcDbEntity
  8
Layer 2
 62
    18
420
    65793
370
    25
100
AcDbVertex
100
AcDb2dVertex
 10
591.0454641001742
 20
34.87534462706627
 30
0.0
  0
VERTEX
  5
30D
330
30B
100
AcDbEntity
  8
Layer 2
 62
    18
420
    65793
370
    25
100
AcDbVertex
100
AcDb2dVertex
 10
591.0454641001742
 20
22.24997553171882
 30
0.0
  0
SEQEND
  5
30E
330
30B
100
AcDbEntity
  8
Layer 2
 62
    18
420
    65793
370
    25
  0
POLYLINE
  5
30F
330
191
100
AcDbEntity
  8
Layer 2
 62
    18
420
    65793
370
    25
100
AcDb2dPolyline
 66
     1
 10
0.0
 20
0.0
 30
0.0
  0
VERTEX
  5
310
330
30F
100
AcDbEntity
  8
Layer 2
 62
    18
420
    65793
370
    25
100
AcDbVertex
100
AcDb2dVertex
 10
591.0454641001742
 20
15.86788825475516
 30
0.0
  0
VERTEX
  5
311
330
30F
100
AcDbEntity
  8
Layer 2
 62
    18
420
    65793
370
    25
100
AcDbVertex
100
AcDb2dVertex
 10
591.0454641001742
 20
3.10378426791613
 30
0.0
  0
SEQEND
  5
312
330
30F
100
AcDbEntity
  8
Layer 2
 62
    18
420
    65793
370
    25
  0
POLYLINE
  5
313
330
191
100
AcDbEntity
  8
Layer 2
 62
    18
420
    65793
370
    25
100
AcDb2dPolyline
 66
     1
 10
0.0
 20
0.0
 30
0.0
  0
VERTEX
  5
314
330
313
100
AcDbEntity
  8
Layer 2
 62
    18
420
    65793
370
    25
100
AcDbVertex
100
AcDb2dVertex
 10
591.0454641001742
 20
-3.278303009045608
 30
0.0
  0
VERTEX
  5
315
330
313
100
AcDbEntity
  8
Layer 2
 62
    18
420
    65793
370
    25
100
AcDbVertex
100
AcDb2dVertex
 10
591.0454641001742
 20
-15.90367210439369
 30
0.0
  0
SEQEND
  5
316
330
313
100
AcDbEntity
  8
Layer 2
 62
    18
420
    65793
370
    25
  0
POLYLINE
  5
317
330
191
100
AcDbEntity
  8
Layer 2
 62
    18
420
    65793
370
    25
100
AcDb2dPolyline
 66
     1
 10
0.0
 20
0.0
 30
0.0
  0
VERTEX
  5
318
330
317
100
AcDbEntity
  8
Layer 2
 62
    18
420
    65793
370
    25
100
AcDbVertex
100
AcDb2dVertex
 10
591.0454641001742
 20
-22.28575938135671
 30
0.0
  0
VERTEX
  5
319
330
317
100
AcDbEntity
  8
Layer 2
 62
    18
420
    65793
370
    25
100
AcDbVertex
100
AcDb2dVertex
 10
591.0454641001742
 20
-34.9111284767048
 30
0.0
  0
SEQEND
  5
31A
330
317
100
AcDbEntity
  8
Layer 2
 62
    18
420
    65793
370
    25
  0
POLYLINE
  5
31B
330
191
100
AcDbEntity
  8
Layer 2
 62
    18
420
    65793
370
    25
100
AcDb2dPolyline
 66
     1
 10
0.0
 20
0.0
 30
0.0
  0
VERTEX
  5
31C
330
31B
100
AcDbEntity
  8
Layer 2
 62
    18
420
    65793
370
    25
100
AcDbVertex
100
AcDb2dVertex
 10
591.0454641001742
 20
-41.29318047012399
 30
0.0
  0
VERTEX
  5
31D
330
31B
100
AcDbEntity
  8
Layer 2
 62
    18
420
    65793
370
    25
100
AcDbVertex
100
AcDb2dVertex
 10
591.0454641001742
 20
-54.05731974050685
 30
0.0
  0
SEQEND
  5
31E
330
31B
100
AcDbEntity
  8
Layer 2
 62
    18
420
    65793
370
    25
  0
POLYLINE
  5
31F
330
191
100
AcDbEntity
  8
Layer 2
 62
    18
420
    65793
370
    25
100
AcDb2dPolyline
 66
     1
 10
0.0
 20
0.0
 30
0.0
  0
VERTEX
  5
320
330
31F
100
AcDbEntity
  8
Layer 2
 62
    18
420
    65793
370
    25
100
AcDbVertex
100
AcDb2dVertex
 10
591.0454641001742
 20
-60.30063684243382
 30
0.0
  0
VERTEX
  5
321
330
31F
100
AcDbEntity
  8
Layer 2
 62
    18
420
    65793
370
    25
100
AcDbVertex
100
AcDb2dVertex
 10
591.0454641001742
 20
-73.06477611281667
 30
0.0
  0
SEQEND
  5
322
330
31F
100
AcDbEntity
  8
Layer 2
 62
    18
420
    65793
370
    25
  0
POLYLINE
  5
323
330
191
100
AcDbEntity
  8
Layer 2
 62
    18
420
    65793
370
    25
100
AcDb2dPolyline
 66
     1
 10
0.0
 20
0.0
 30
0.0
  0
VERTEX
  5
324
330
323
100
AcDbEntity
  8
Layer 2
 62
    18
420
    65793
370
    25
100
AcDbVertex
100
AcDb2dVertex
 10
591.0454641001742
 20
-79.44682810623587
 30
0.0
  0
VERTEX
  5
325
330
323
100
AcDbEntity
  8
Layer 2
 62
    18
420
    65793
370
    25
100
AcDbVertex
100
AcDb2dVertex
 10
591.0454641001742
 20
-92.07223248512713
 30
0.0
  0
SEQEND
  5
326
330
323
100
AcDbEntity
  8
Layer 2
 62
    18
420
    65793
370
    25
  0
POLYLINE
  5
327
330
191
100
AcDbEntity
  8
Layer 2
 62
    18
420
    65793
370
    25
100
AcDb2dPolyline
 66
     1
 10
0.0
 20
0.0
 30
0.0
  0
VERTEX
  5
328
330
327
100
AcDbEntity
  8
Layer 2
 62
    18
420
    65793
370
    25
100
AcDbVertex
100
AcDb2dVertex
 10
591.0454641001742
 20
-98.45428447854697
 30
0.0
  0
VERTEX
  5
329
330
327
100
AcDbEntity
  8
Layer 2
 62
    18
420
    65793
370
    25
100
AcDbVertex
100
AcDb2dVertex
 10
591.0454641001742
 20
-111.2184237489292
 30
0.0
  0
SEQEND
  5
32A
330
327
100
AcDbEntity
  8
Layer 2
 62
    18
420
    65793
370
    25
  0
POLYLINE
  5
32B
330
191
100
AcDbEntity
  8
Layer 2
 62
    18
420
    65793
370
    25
100
AcDb2dPolyline
 66
     1
 10
0.0
 20
0.0
 30
0.0
  0
VERTEX
  5
32C
330
32B
100
AcDbEntity
  8
Layer 2
 62
    18
420
    65793
370
    25
100
AcDbVertex
100
AcDb2dVertex
 10
591.0454641001742
 20
-117.461758492629
 30
0.0
  0
VERTEX
  5
32D
330
32B
100
AcDbEntity
  8
Layer 2
 62
    18
420
    65793
370
    25
100
AcDbVertex
100
AcDb2dVertex
 10
591.0454641001742
 20
-130.2258801212403
 30
0.0
  0
SEQEND
  5
32E
330
32B
100
AcDbEntity
  8
Layer 2
 62
    18
420
    65793
370
    25
  0
POLYLINE
  5
32F
330
191
100
AcDbEntity
  8
Layer 2
 62
    18
420
    65793
370
    25
100
AcDb2dPolyline
 66
     1
 10
0.0
 20
0.0
 30
0.0
  0
VERTEX
  5
330
330
32F
100
AcDbEntity
  8
Layer 2
 62
    18
420
    65793
370
    25
100
AcDbVertex
100
AcDb2dVertex
 10
591.0454641001742
 20
-136.6079497564311
 30
0.0
  0
VERTEX
  5
331
330
32F
100
AcDbEntity
  8
Layer 2
 62
    18
420
    65793
370
    25
100
AcDbVertex
100
AcDb2dVertex
 10
591.0454641001742
 20
-145.3486007558388
 30
0.0
  0
SEQEND
  5
332
330
32F
100
AcDbEntity
  8
Layer 2
 62
    18
420
    65793
370
    25
  0
SPLINE
  5
333
330
191
100
AcDbEntity
  8
Layer 2
 62
    18
420
    65793
370
    25
100
AcDbSpline
210
0.0
220
0.0
230
1.0
 70
     8
 71
     3
 72
     8
 73
     4
 74
     0
 42
0.0000000001
 43
0.0000000001
 12
1.0
 22
0.0
 32
0.0
 13
1.0
 23
0.0
 33
0.0
 40
0.0
 40
0.0
 40
0.0
 40
0.0
 40
1.0
 40
1.0
 40
1.0
 40
1.0
 10
591.0454641001742
 20
-145.3486007558388
 30
0.0
 10
591.1506796257187
 20
-147.9785302083096
 30
0.0
 10
588.9116565473139
 20
-150.2175180031693
 30
0.0
 10
586.1497313600856
 20
-150.2175180031693
 30
0.0
  0
POLYLINE
  5
334
330
191
100
AcDbEntity
  8
Layer 2
 62
    18
420
    65793
370
    25
100
AcDb2dPolyline
 66
     1
 10
0.0
 20
0.0
 30
0.0
  0
VERTEX
  5
335
330
334
100
AcDbEntity
  8
Layer 2
 62
    18
420
    65793
370
    25
100
AcDbVertex
100
AcDb2dVertex
 10
586.050866872303
 20
-150.343250909026
 30
0.0
  0
VERTEX
  5
336
330
334
100
AcDbEntity
  8
Layer 2
 62
    18
420
    65793
370
    25
100
AcDbVertex
100
AcDb2dVertex
 10
575.2290513663456
 20
-150.343250909026
 30
0.0
  0
SEQEND
  5
337
330
334
100
AcDbEntity
  8
Layer 2
 62
    18
420
    65793
370
    25
  0
POLYLINE
  5
338
330
191
100
AcDbEntity
  8
Layer 2
 62
    18
420
    65793
370
    25
100
AcDb2dPolyline
 66
     1
 10
0.0
 20
0.0
 30
0.0
  0
VERTEX
  5
339
330
338
100
AcDbEntity
  8
Layer 2
 62
    18
420
    65793
370
    25
100
AcDbVertex
100
AcDb2dVertex
 10
568.8470346564728
 20
-150.343250909026
 30
0.0
  0
VERTEX
  5
33A
330
338
100
AcDbEntity
  8
Layer 2
 62
    18
420
    65793
370
    25
100
AcDbVertex
100
AcDb2dVertex
 10
556.221594994037
 20
-150.343250909026
 30
0.0
  0
SEQEND
  5
33B
330
338
100
AcDbEntity
  8
Layer 2
 62
    18
420
    65793
370
    25
  0
POLYLINE
  5
33C
330
191
100
AcDbEntity
  8
Layer 2
 62
    18
420
    65793
370
    25
100
AcDb2dPolyline
 66
     1
 10
0.0
 20
0.0
 30
0.0
  0
VERTEX
  5
33D
330
33C
100
AcDbEntity
  8
Layer 2
 62
    18
420
    65793
370
    25
100
AcDbVertex
100
AcDb2dVertex
 10
549.8395782841598
 20
-150.343250909026
 30
0.0
  0
VERTEX
  5
33E
330
33C
100
AcDbEntity
  8
Layer 2
 62
    18
420
    65793
370
    25
100
AcDbVertex
100
AcDb2dVertex
 10
537.2141386217279
 20
-150.343250909026
 30
0.0
  0
SEQEND
  5
33F
330
33C
100
AcDbEntity
  8
Layer 2
 62
    18
420
    65793
370
    25
  0
POLYLINE
  5
340
330
191
100
AcDbEntity
  8
Layer 2
 62
    18
420
    65793
370
    25
100
AcDb2dPolyline
 66
     1
 10
0.0
 20
0.0
 30
0.0
  0
VERTEX
  5
341
330
340
100
AcDbEntity
  8
Layer 2
 62
    18
420
    65793
370
    25
100
AcDbVertex
100
AcDb2dVertex
 10
530.8321219118505
 20
-150.343250909026
 30
0.0
  0
VERTEX
  5
342
330
340
100
AcDbEntity
  8
Layer 2
 62
    18
420
    65793
370
    25
100
AcDbVertex
100
AcDb2dVertex
 10
518.0679473579252
 20
-150.343250909026
 30
0.0
  0
SEQEND
  5
343
330
340
100
AcDbEntity
  8
Layer 2
 62
    18
420
    65793
370
    25
  0
POLYLINE
  5
344
330
191
100
AcDbEntity
  8
Layer 2
 62
    18
420
    65793
370
    25
100
AcDb2dPolyline
 66
     1
 10
0.0
 20
0.0
 30
0.0
  0
VERTEX
  5
345
330
344
100
AcDbEntity
  8
Layer 2
 62
    18
420
    65793
370
    25
100
AcDbVertex
100
AcDb2dVertex
 10
511.6859306480479
 20
-150.343250909026
 30
0.0
  0
VERTEX
  5
346
330
344
100
AcDbEntity
  8
Layer 2
 62
    18
420
    65793
370
    25
100
AcDbVertex
100
AcDb2dVertex
 10
499.0604909856121
 20
-150.343250909026
 30
0.0
  0
SEQEND
  5
347
330
344
100
AcDbEntity
  8
Layer 2
 62
    18
420
    65793
370
    25
  0
POLYLINE
  5
348
330
191
100
AcDbEntity
  8
Layer 2
 62
    18
420
    65793
370
    25
100
AcDb2dPolyline
 66
     1
 10
0.0
 20
0.0
 30
0.0
  0
VERTEX
  5
349
330
348
100
AcDbEntity
  8
Layer 2
 62
    18
420
    65793
370
    25
100
AcDbVertex
100
AcDb2dVertex
 10
492.6784742757387
 20
-150.343250909026
 30
0.0
  0
VERTEX
  5
34A
330
348
100
AcDbEntity
  8
Layer 2
 62
    18
420
    65793
370
    25
100
AcDbVertex
100
AcDb2dVertex
 10
480.0530346133029
 20
-150.343250909026
 30
0.0
  0
SEQEND
  5
34B
330
348
100
AcDbEntity
  8
Layer 2
 62
    18
420
    65793
370
    25
  0
POLYLINE
  5
34C
330
191
100
AcDbEntity
  8
Layer 2
 62
    18
420
    65793
370
    25
100
AcDb2dPolyline
 66
     1
 10
0.0
 20
0.0
 30
0.0
  0
VERTEX
  5
34D
330
34C
100
AcDbEntity
  8
Layer 2
 62
    18
420
    65793
370
    25
100
AcDbVertex
100
AcDb2dVertex
 10
473.6710179034263
 20
-150.343250909026
 30
0.0
  0
VERTEX
  5
34E
330
34C
100
AcDbEntity
  8
Layer 2
 62
    18
420
    65793
370
    25
100
AcDbVertex
100
AcDb2dVertex
 10
460.9068433495009
 20
-150.343250909026
 30
0.0
  0
SEQEND
  5
34F
330
34C
100
AcDbEntity
  8
Layer 2
 62
    18
420
    65793
370
    25
  0
POLYLINE
  5
350
330
191
100
AcDbEntity
  8
Layer 2
 62
    18
420
    65793
370
    25
100
AcDb2dPolyline
 66
     1
 10
0.0
 20
0.0
 30
0.0
  0
VERTEX
  5
351
330
350
100
AcDbEntity
  8
Layer 2
 62
    18
420
    65793
370
    25
100
AcDbVertex
100
AcDb2dVertex
 10
454.5248266396236
 20
-150.343250909026
 30
0.0
  0
VERTEX
  5
352
330
350
100
AcDbEntity
  8
Layer 2
 62
    18
420
    65793
370
    25
100
AcDbVertex
100
AcDb2dVertex
 10
441.8993869771917
 20
-150.343250909026
 30
0.0
  0
SEQEND
  5
353
330
350
100
AcDbEntity
  8
Layer 2
 62
    18
420
    65793
370
    25
  0
POLYLINE
  5
354
330
191
100
AcDbEntity
  8
Layer 2
 62
    18
420
    65793
370
    25
100
AcDb2dPolyline
 66
     1
 10
0.0
 20
0.0
 30
0.0
  0
VERTEX
  5
355
330
354
100
AcDbEntity
  8
Layer 2
 62
    18
420
    65793
370
    25
100
AcDbVertex
100
AcDb2dVertex
 10
435.5173702673144
 20
-150.343250909026
 30
0.0
  0
VERTEX
  5
356
330
354
100
AcDbEntity
  8
Layer 2
 62
    18
420
    65793
370
    25
100
AcDbVertex
100
AcDb2dVertex
 10
422.8920011719663
 20
-150.343250909026
 30
0.0
  0
SEQEND
  5
357
330
354
100
AcDbEntity
  8
Layer 2
 62
    18
420
    65793
370
    25
  0
POLYLINE
  5
358
330
191
100
AcDbEntity
  8
Layer 2
 62
    18
420
    65793
370
    25
100
AcDb2dPolyline
 66
     1
 10
0.0
 20
0.0
 30
0.0
  0
VERTEX
  5
359
330
358
100
AcDbEntity
  8
Layer 2
 62
    18
420
    65793
370
    25
100
AcDbVertex
100
AcDb2dVertex
 10
416.5099138950021
 20
-150.343250909026
 30
0.0
  0
VERTEX
  5
35A
330
358
100
AcDbEntity
  8
Layer 2
 62
    18
420
    65793
370
    25
100
AcDbVertex
100
AcDb2dVertex
 10
403.7457393410799
 20
-150.343250909026
 30
0.0
  0
SEQEND
  5
35B
330
358
100
AcDbEntity
  8
Layer 2
 62
    18
420
    65793
370
    25
  0
POLYLINE
  5
35C
330
191
100
AcDbEntity
  8
Layer 2
 62
    18
420
    65793
370
    25
100
AcDb2dPolyline
 66
     1
 10
0.0
 20
0.0
 30
0.0
  0
VERTEX
  5
35D
330
35C
100
AcDbEntity
  8
Layer 2
 62
    18
420
    65793
370
    25
100
AcDbVertex
100
AcDb2dVertex
 10
397.3637226312026
 20
-150.343250909026
 30
0.0
  0
VERTEX
  5
35E
330
35C
100
AcDbEntity
  8
Layer 2
 62
    18
420
    65793
370
    25
100
AcDbVertex
100
AcDb2dVertex
 10
384.7383535358551
 20
-150.343250909026
 30
0.0
  0
SEQEND
  5
35F
330
35C
100
AcDbEntity
  8
Layer 2
 62
    18
420
    65793
370
    25
  0
POLYLINE
  5
360
330
191
100
AcDbEntity
  8
Layer 2
 62
    18
420
    65793
370
    25
100
AcDb2dPolyline
 66
     1
 10
0.0
 20
0.0
 30
0.0
  0
VERTEX
  5
361
330
360
100
AcDbEntity
  8
Layer 2
 62
    18
420
    65793
370
    25
100
AcDbVertex
100
AcDb2dVertex
 10
378.3562662588902
 20
-150.343250909026
 30
0.0
  0
VERTEX
  5
362
330
360
100
AcDbEntity
  8
Layer 2
 62
    18
420
    65793
370
    25
100
AcDbVertex
100
AcDb2dVertex
 10
365.7308971635421
 20
-150.343250909026
 30
0.0
  0
SEQEND
  5
363
330
360
100
AcDbEntity
  8
Layer 2
 62
    18
420
    65793
370
    25
  0
POLYLINE
  5
364
330
191
100
AcDbEntity
  8
Layer 2
 62
    18
420
    65793
370
    25
100
AcDb2dPolyline
 66
     1
 10
0.0
 20
0.0
 30
0.0
  0
VERTEX
  5
365
330
364
100
AcDbEntity
  8
Layer 2
 62
    18
420
    65793
370
    25
100
AcDbVertex
100
AcDb2dVertex
 10
359.348809886581
 20
-150.343250909026
 30
0.0
  0
VERTEX
  5
366
330
364
100
AcDbEntity
  8
Layer 2
 62
    18
420
    65793
370
    25
100
AcDbVertex
100
AcDb2dVertex
 10
346.5847058997413
 20
-150.343250909026
 30
0.0
  0
SEQEND
  5
367
330
364
100
AcDbEntity
  8
Layer 2
 62
    18
420
    65793
370
    25
  0
POLYLINE
  5
368
330
191
100
AcDbEntity
  8
Layer 2
 62
    18
420
    65793
370
    25
100
AcDb2dPolyline
 66
     1
 10
0.0
 20
0.0
 30
0.0
  0
VERTEX
  5
369
330
368
100
AcDbEntity
  8
Layer 2
 62
    18
420
    65793
370
    25
100
AcDbVertex
100
AcDb2dVertex
 10
340.2026186227789
 20
-150.343250909026
 30
0.0
  0
VERTEX
  5
36A
330
368
100
AcDbEntity
  8
Layer 2
 62
    18
420
    65793
370
    25
100
AcDbVertex
100
AcDb2dVertex
 10
327.5772495274309
 20
-150.343250909026
 30
0.0
  0
SEQEND
  5
36B
330
368
100
AcDbEntity
  8
Layer 2
 62
    18
420
    65793
370
    25
  0
POLYLINE
  5
36C
330
191
100
AcDbEntity
  8
Layer 2
 62
    18
420
    65793
370
    25
100
AcDb2dPolyline
 66
     1
 10
0.0
 20
0.0
 30
0.0
  0
VERTEX
  5
36D
330
36C
100
AcDbEntity
  8
Layer 2
 62
    18
420
    65793
370
    25
100
AcDbVertex
100
AcDb2dVertex
 10
321.1951622504691
 20
-150.343250909026
 30
0.0
  0
VERTEX
  5
36E
330
36C
100
AcDbEntity
  8
Layer 2
 62
    18
420
    65793
370
    25
100
AcDbVertex
100
AcDb2dVertex
 10
308.569793155121
 20
-150.343250909026
 30
0.0
  0
SEQEND
  5
36F
330
36C
100
AcDbEntity
  8
Layer 2
 62
    18
420
    65793
370
    25
  0
POLYLINE
  5
370
330
191
100
AcDbEntity
  8
Layer 2
 62
    18
420
    65793
370
    25
100
AcDb2dPolyline
 66
     1
 10
0.0
 20
0.0
 30
0.0
  0
VERTEX
  5
371
330
370
100
AcDbEntity
  8
Layer 2
 62
    18
420
    65793
370
    25
100
AcDbVertex
100
AcDb2dVertex
 10
302.187705878158
 20
-150.343250909026
 30
0.0
  0
VERTEX
  5
372
330
370
100
AcDbEntity
  8
Layer 2
 62
    18
420
    65793
370
    25
100
AcDbVertex
100
AcDb2dVertex
 10
289.423601891319
 20
-150.343250909026
 30
0.0
  0
SEQEND
  5
373
330
370
100
AcDbEntity
  8
Layer 2
 62
    18
420
    65793
370
    25
  0
POLYLINE
  5
374
330
191
100
AcDbEntity
  8
Layer 2
 62
    18
420
    65793
370
    25
100
AcDb2dPolyline
 66
     1
 10
0.0
 20
0.0
 30
0.0
  0
VERTEX
  5
375
330
374
100
AcDbEntity
  8
Layer 2
 62
    18
420
    65793
370
    25
100
AcDbVertex
100
AcDb2dVertex
 10
283.0415146143559
 20
-150.343250909026
 30
0.0
  0
VERTEX
  5
376
330
374
100
AcDbEntity
  8
Layer 2
 62
    18
420
    65793
370
    25
100
AcDbVertex
100
AcDb2dVertex
 10
270.4161455190079
 20
-150.343250909026
 30
0.0
  0
SEQEND
  5
377
330
374
100
AcDbEntity
  8
Layer 2
 62
    18
420
    65793
370
    25
  0
POLYLINE
  5
378
330
191
100
AcDbEntity
  8
Layer 2
 62
    18
420
    65793
370
    25
100
AcDb2dPolyline
 66
     1
 10
0.0
 20
0.0
 30
0.0
  0
VERTEX
  5
379
330
378
100
AcDbEntity
  8
Layer 2
 62
    18
420
    65793
370
    25
100
AcDbVertex
100
AcDb2dVertex
 10
264.0340582420455
 20
-150.343250909026
 30
0.0
  0
VERTEX
  5
37A
330
378
100
AcDbEntity
  8
Layer 2
 62
    18
420
    65793
370
    25
100
AcDbVertex
100
AcDb2dVertex
 10
251.4086538631549
 20
-150.343250909026
 30
0.0
  0
SEQEND
  5
37B
330
378
100
AcDbEntity
  8
Layer 2
 62
    18
420
    65793
370
    25
  0
POLYLINE
  5
37C
330
191
100
AcDbEntity
  8
Layer 2
 62
    18
420
    65793
370
    25
100
AcDb2dPolyline
 66
     1
 10
0.0
 20
0.0
 30
0.0
  0
VERTEX
  5
37D
330
37C
100
AcDbEntity
  8
Layer 2
 62
    18
420
    65793
370
    25
100
AcDbVertex
100
AcDb2dVertex
 10
245.0266018697357
 20
-150.343250909026
 30
0.0
  0
VERTEX
  5
37E
330
37C
100
AcDbEntity
  8
Layer 2
 62
    18
420
    65793
370
    25
100
AcDbVertex
100
AcDb2dVertex
 10
232.2624625993528
 20
-150.343250909026
 30
0.0
  0
SEQEND
  5
37F
330
37C
100
AcDbEntity
  8
Layer 2
 62
    18
420
    65793
370
    25
  0
POLYLINE
  5
380
330
191
100
AcDbEntity
  8
Layer 2
 62
    18
420
    65793
370
    25
100
AcDb2dPolyline
 66
     1
 10
0.0
 20
0.0
 30
0.0
  0
VERTEX
  5
381
330
380
100
AcDbEntity
  8
Layer 2
 62
    18
420
    65793
370
    25
100
AcDbVertex
100
AcDb2dVertex
 10
225.8804106059336
 20
-150.343250909026
 30
0.0
  0
VERTEX
  5
382
330
380
100
AcDbEntity
  8
Layer 2
 62
    18
420
    65793
370
    25
100
AcDbVertex
100
AcDb2dVertex
 10
213.2550062270423
 20
-150.343250909026
 30
0.0
  0
SEQEND
  5
383
330
380
100
AcDbEntity
  8
Layer 2
 62
    18
420
    65793
370
    25
  0
POLYLINE
  5
384
330
191
100
AcDbEntity
  8
Layer 2
 62
    18
420
    65793
370
    25
100
AcDb2dPolyline
 66
     1
 10
0.0
 20
0.0
 30
0.0
  0
VERTEX
  5
385
330
384
100
AcDbEntity
  8
Layer 2
 62
    18
420
    65793
370
    25
100
AcDbVertex
100
AcDb2dVertex
 10
206.8729542336225
 20
-150.343250909026
 30
0.0
  0
VERTEX
  5
386
330
384
100
AcDbEntity
  8
Layer 2
 62
    18
420
    65793
370
    25
100
AcDbVertex
100
AcDb2dVertex
 10
194.2475851382744
 20
-150.343250909026
 30
0.0
  0
SEQEND
  5
387
330
384
100
AcDbEntity
  8
Layer 2
 62
    18
420
    65793
370
    25
  0
POLYLINE
  5
388
330
191
100
AcDbEntity
  8
Layer 2
 62
    18
420
    65793
370
    25
100
AcDb2dPolyline
 66
     1
 10
0.0
 20
0.0
 30
0.0
  0
VERTEX
  5
389
330
388
100
AcDbEntity
  8
Layer 2
 62
    18
420
    65793
370
    25
100
AcDbVertex
100
AcDb2dVertex
 10
187.8654978613127
 20
-150.343250909026
 30
0.0
  0
VERTEX
  5
38A
330
388
100
AcDbEntity
  8
Layer 2
 62
    18
420
    65793
370
    25
100
AcDbVertex
100
AcDb2dVertex
 10
175.1013585909305
 20
-150.343250909026
 30
0.0
  0
SEQEND
  5
38B
330
388
100
AcDbEntity
  8
Layer 2
 62
    18
420
    65793
370
    25
  0
POLYLINE
  5
38C
330
191
100
AcDbEntity
  8
Layer 2
 62
    18
420
    65793
370
    25
100
AcDb2dPolyline
 66
     1
 10
0.0
 20
0.0
 30
0.0
  0
VERTEX
  5
38D
330
38C
100
AcDbEntity
  8
Layer 2
 62
    18
420
    65793
370
    25
100
AcDbVertex
100
AcDb2dVertex
 10
168.71930659751
 20
-150.343250909026
 30
0.0
  0
VERTEX
  5
38E
330
38C
100
AcDbEntity
  8
Layer 2
 62
    18
420
    65793
370
    25
100
AcDbVertex
100
AcDb2dVertex
 10
156.0939375021626
 20
-150.343250909026
 30
0.0
  0
SEQEND
  5
38F
330
38C
100
AcDbEntity
  8
Layer 2
 62
    18
420
    65793
370
    25
  0
POLYLINE
  5
390
330
191
100
AcDbEntity
  8
Layer 2
 62
    18
420
    65793
370
    25
100
AcDb2dPolyline
 66
     1
 10
0.0
 20
0.0
 30
0.0
  0
VERTEX
  5
391
330
390
100
AcDbEntity
  8
Layer 2
 62
    18
420
    65793
370
    25
100
AcDbVertex
100
AcDb2dVertex
 10
149.7118502252002
 20
-150.343250909026
 30
0.0
  0
VERTEX
  5
392
330
390
100
AcDbEntity
  8
Layer 2
 62
    18
420
    65793
370
    25
100
AcDbVertex
100
AcDb2dVertex
 10
137.0864811298521
 20
-150.343250909026
 30
0.0
  0
SEQEND
  5
393
330
390
100
AcDbEntity
  8
Layer 2
 62
    18
420
    65793
370
    25
  0
POLYLINE
  5
394
330
191
100
AcDbEntity
  8
Layer 2
 62
    18
420
    65793
370
    25
100
AcDb2dPolyline
 66
     1
 10
0.0
 20
0.0
 30
0.0
  0
VERTEX
  5
395
330
394
100
AcDbEntity
  8
Layer 2
 62
    18
420
    65793
370
    25
100
AcDbVertex
100
AcDb2dVertex
 10
130.7043938528891
 20
-150.343250909026
 30
0.0
  0
VERTEX
  5
396
330
394
100
AcDbEntity
  8
Layer 2
 62
    18
420
    65793
370
    25
100
AcDbVertex
100
AcDb2dVertex
 10
117.94028986605
 20
-150.343250909026
 30
0.0
  0
SEQEND
  5
397
330
394
100
AcDbEntity
  8
Layer 2
 62
    18
420
    65793
370
    25
  0
POLYLINE
  5
398
330
191
100
AcDbEntity
  8
Layer 2
 62
    18
420
    65793
370
    25
100
AcDb2dPolyline
 66
     1
 10
0.0
 20
0.0
 30
0.0
  0
VERTEX
  5
399
330
398
100
AcDbEntity
  8
Layer 2
 62
    18
420
    65793
370
    25
100
AcDbVertex
100
AcDb2dVertex
 10
111.558202589087
 20
-150.343250909026
 30
0.0
  0
VERTEX
  5
39A
330
398
100
AcDbEntity
  8
Layer 2
 62
    18
420
    65793
370
    25
100
AcDbVertex
100
AcDb2dVertex
 10
98.93283349374022
 20
-150.343250909026
 30
0.0
  0
SEQEND
  5
39B
330
398
100
AcDbEntity
  8
Layer 2
 62
    18
420
    65793
370
    25
  0
POLYLINE
  5
39C
330
191
100
AcDbEntity
  8
Layer 2
 62
    18
420
    65793
370
    25
100
AcDb2dPolyline
 66
     1
 10
0.0
 20
0.0
 30
0.0
  0
VERTEX
  5
39D
330
39C
100
AcDbEntity
  8
Layer 2
 62
    18
420
    65793
370
    25
100
AcDbVertex
100
AcDb2dVertex
 10
92.55074621677655
 20
-150.343250909026
 30
0.0
  0
VERTEX
  5
39E
330
39C
100
AcDbEntity
  8
Layer 2
 62
    18
420
    65793
370
    25
100
AcDbVertex
100
AcDb2dVertex
 10
79.92537712142911
 20
-150.343250909026
 30
0.0
  0
SEQEND
  5
39F
330
39C
100
AcDbEntity
  8
Layer 2
 62
    18
420
    65793
370
    25
  0
POLYLINE
  5
3A0
330
191
100
AcDbEntity
  8
Layer 2
 62
    18
420
    65793
370
    25
100
AcDb2dPolyline
 66
     1
 10
0.0
 20
0.0
 30
0.0
  0
VERTEX
  5
3A1
330
3A0
100
AcDbEntity
  8
Layer 2
 62
    18
420
    65793
370
    25
100
AcDbVertex
100
AcDb2dVertex
 10
73.54328984446609
 20
-150.343250909026
 30
0.0
  0
VERTEX
  5
3A2
330
3A0
100
AcDbEntity
  8
Layer 2
 62
    18
420
    65793
370
    25
100
AcDbVertex
100
AcDb2dVertex
 10
60.77918585762706
 20
-150.343250909026
 30
0.0
  0
SEQEND
  5
3A3
330
3A0
100
AcDbEntity
  8
Layer 2
 62
    18
420
    65793
370
    25
  0
POLYLINE
  5
3A4
330
191
100
AcDbEntity
  8
Layer 2
 62
    18
420
    65793
370
    25
100
AcDb2dPolyline
 66
     1
 10
0.0
 20
0.0
 30
0.0
  0
VERTEX
  5
3A5
330
3A4
100
AcDbEntity
  8
Layer 2
 62
    18
420
    65793
370
    25
100
AcDbVertex
100
AcDb2dVertex
 10
54.39709858066404
 20
-150.343250909026
 30
0.0
  0
VERTEX
  5
3A6
330
3A4
100
AcDbEntity
  8
Layer 2
 62
    18
420
    65793
370
    25
100
AcDbVertex
100
AcDb2dVertex
 10
41.77172948531724
 20
-150.343250909026
 30
0.0
  0
SEQEND
  5
3A7
330
3A4
100
AcDbEntity
  8
Layer 2
 62
    18
420
    65793
370
    25
  0
POLYLINE
  5
3A8
330
191
100
AcDbEntity
  8
Layer 2
 62
    18
420
    65793
370
    25
100
AcDb2dPolyline
 66
     1
 10
0.0
 20
0.0
 30
0.0
  0
VERTEX
  5
3A9
330
3A8
100
AcDbEntity
  8
Layer 2
 62
    18
420
    65793
370
    25
100
AcDbVertex
100
AcDb2dVertex
 10
35.38964220835357
 20
-150.343250909026
 30
0.0
  0
VERTEX
  5
3AA
330
3A8
100
AcDbEntity
  8
Layer 2
 62
    18
420
    65793
370
    25
100
AcDbVertex
100
AcDb2dVertex
 10
22.76427311300645
 20
-150.343250909026
 30
0.0
  0
SEQEND
  5
3AB
330
3A8
100
AcDbEntity
  8
Layer 2
 62
    18
420
    65793
370
    25
  0
POLYLINE
  5
3AC
330
191
100
AcDbEntity
  8
Layer 2
 62
    18
420
    65793
370
    25
100
AcDb2dPolyline
 66
     1
 10
0.0
 20
0.0
 30
0.0
  0
VERTEX
  5
3AD
330
3AC
100
AcDbEntity
  8
Layer 2
 62
    18
420
    65793
370
    25
100
AcDbVertex
100
AcDb2dVertex
 10
16.38218583604375
 20
-150.343250909026
 30
0.0
  0
VERTEX
  5
3AE
330
3AC
100
AcDbEntity
  8
Layer 2
 62
    18
420
    65793
370
    25
100
AcDbVertex
100
AcDb2dVertex
 10
3.618081849204398
 20
-150.343250909026
 30
0.0
  0
SEQEND
  5
3AF
330
3AC
100
AcDbEntity
  8
Layer 2
 62
    18
420
    65793
370
    25
  0
POLYLINE
  5
3B0
330
191
100
AcDbEntity
  8
Layer 2
 62
    18
420
    65793
370
    25
100
AcDb2dPolyline
 66
     1
 10
0.0
 20
0.0
 30
0.0
  0
VERTEX
  5
3B1
330
3B0
100
AcDbEntity
  8
Layer 2
 62
    18
420
    65793
370
    25
100
AcDbVertex
100
AcDb2dVertex
 10
-2.764005427758303
 20
-150.343250909026
 30
0.0
  0
VERTEX
  5
3B2
330
3B0
100
AcDbEntity
  8
Layer 2
 62
    18
420
    65793
370
    25
100
AcDbVertex
100
AcDb2dVertex
 10
-15.38937452310639
 20
-150.343250909026
 30
0.0
  0
SEQEND
  5
3B3
330
3B0
100
AcDbEntity
  8
Layer 2
 62
    18
420
    65793
370
    25
  0
POLYLINE
  5
3B4
330
191
100
AcDbEntity
  8
Layer 2
 62
    18
420
    65793
370
    25
100
AcDb2dPolyline
 66
     1
 10
0.0
 20
0.0
 30
0.0
  0
VERTEX
  5
3B5
330
3B4
100
AcDbEntity
  8
Layer 2
 62
    18
420
    65793
370
    25
100
AcDbVertex
100
AcDb2dVertex
 10
-21.7714265165259
 20
-150.343250909026
 30
0.0
  0
VERTEX
  5
3B6
330
3B4
100
AcDbEntity
  8
Layer 2
 62
    18
420
    65793
370
    25
100
AcDbVertex
100
AcDb2dVertex
 10
-34.39683089541621
 20
-150.343250909026
 30
0.0
  0
SEQEND
  5
3B7
330
3B4
100
AcDbEntity
  8
Layer 2
 62
    18
420
    65793
370
    25
  0
POLYLINE
  5
3B8
330
191
100
AcDbEntity
  8
Layer 2
 62
    18
420
    65793
370
    25
100
AcDb2dPolyline
 66
     1
 10
0.0
 20
0.0
 30
0.0
  0
VERTEX
  5
3B9
330
3B8
100
AcDbEntity
  8
Layer 2
 62
    18
420
    65793
370
    25
100
AcDbVertex
100
AcDb2dVertex
 10
-40.77888288883668
 20
-150.343250909026
 30
0.0
  0
VERTEX
  5
3BA
330
3B8
100
AcDbEntity
  8
Layer 2
 62
    18
420
    65793
370
    25
100
AcDbVertex
100
AcDb2dVertex
 10
-53.54302215921923
 20
-150.343250909026
 30
0.0
  0
SEQEND
  5
3BB
330
3B8
100
AcDbEntity
  8
Layer 2
 62
    18
420
    65793
370
    25
  0
POLYLINE
  5
3BC
330
191
100
AcDbEntity
  8
Layer 2
 62
    18
420
    65793
370
    25
100
AcDb2dPolyline
 66
     1
 10
0.0
 20
0.0
 30
0.0
  0
VERTEX
  5
3BD
330
3BC
100
AcDbEntity
  8
Layer 2
 62
    18
420
    65793
370
    25
100
AcDbVertex
100
AcDb2dVertex
 10
-59.92509179440937
 20
-150.343250909026
 30
0.0
  0
VERTEX
  5
3BE
330
3BC
100
AcDbEntity
  8
Layer 2
 62
    18
420
    65793
370
    25
100
AcDbVertex
100
AcDb2dVertex
 10
-72.55047853152905
 20
-150.343250909026
 30
0.0
  0
SEQEND
  5
3BF
330
3BC
100
AcDbEntity
  8
Layer 2
 62
    18
420
    65793
370
    25
  0
POLYLINE
  5
3C0
330
191
100
AcDbEntity
  8
Layer 2
 62
    18
420
    65793
370
    25
100
AcDb2dPolyline
 66
     1
 10
0.0
 20
0.0
 30
0.0
  0
VERTEX
  5
3C1
330
3C0
100
AcDbEntity
  8
Layer 2
 62
    18
420
    65793
370
    25
100
AcDbVertex
100
AcDb2dVertex
 10
-78.93254816672015
 20
-150.343250909026
 30
0.0
  0
VERTEX
  5
3C2
330
3C0
100
AcDbEntity
  8
Layer 2
 62
    18
420
    65793
370
    25
100
AcDbVertex
100
AcDb2dVertex
 10
-91.55793490383887
 20
-150.343250909026
 30
0.0
  0
SEQEND
  5
3C3
330
3C0
100
AcDbEntity
  8
Layer 2
 62
    18
420
    65793
370
    25
  0
POLYLINE
  5
3C4
330
191
100
AcDbEntity
  8
Layer 2
 62
    18
420
    65793
370
    25
100
AcDb2dPolyline
 66
     1
 10
0.0
 20
0.0
 30
0.0
  0
VERTEX
  5
3C5
330
3C4
100
AcDbEntity
  8
Layer 2
 62
    18
420
    65793
370
    25
100
AcDbVertex
100
AcDb2dVertex
 10
-97.94000453903094
 20
-150.343250909026
 30
0.0
  0
VERTEX
  5
3C6
330
3C4
100
AcDbEntity
  8
Layer 2
 62
    18
420
    65793
370
    25
100
AcDbVertex
100
AcDb2dVertex
 10
-110.7041261676419
 20
-150.343250909026
 30
0.0
  0
SEQEND
  5
3C7
330
3C4
100
AcDbEntity
  8
Layer 2
 62
    18
420
    65793
370
    25
  0
POLYLINE
  5
3C8
330
191
100
AcDbEntity
  8
Layer 2
 62
    18
420
    65793
370
    25
100
AcDb2dPolyline
 66
     1
 10
0.0
 20
0.0
 30
0.0
  0
VERTEX
  5
3C9
330
3C8
100
AcDbEntity
  8
Layer 2
 62
    18
420
    65793
370
    25
100
AcDbVertex
100
AcDb2dVertex
 10
-117.086195802832
 20
-150.343250909026
 30
0.0
  0
VERTEX
  5
3CA
330
3C8
100
AcDbEntity
  8
Layer 2
 62
    18
420
    65793
370
    25
100
AcDbVertex
100
AcDb2dVertex
 10
-129.7115825399517
 20
-150.343250909026
 30
0.0
  0
SEQEND
  5
3CB
330
3C8
100
AcDbEntity
  8
Layer 2
 62
    18
420
    65793
370
    25
  0
POLYLINE
  5
3CC
330
191
100
AcDbEntity
  8
Layer 2
 62
    18
420
    65793
370
    25
100
AcDb2dPolyline
 66
     1
 10
0.0
 20
0.0
 30
0.0
  0
VERTEX
  5
3CD
330
3CC
100
AcDbEntity
  8
Layer 2
 62
    18
420
    65793
370
    25
100
AcDbVertex
100
AcDb2dVertex
 10
-136.0936345333712
 20
-150.343250909026
 30
0.0
  0
VERTEX
  5
3CE
330
3CC
100
AcDbEntity
  8
Layer 2
 62
    18
420
    65793
370
    25
100
AcDbVertex
100
AcDb2dVertex
 10
-148.7190389122625
 20
-150.343250909026
 30
0.0
  0
SEQEND
  5
3CF
330
3CC
100
AcDbEntity
  8
Layer 2
 62
    18
420
    65793
370
    25
  0
POLYLINE
  5
3D0
330
191
100
AcDbEntity
  8
Layer 2
 62
    18
420
    65793
370
    25
100
AcDb2dPolyline
 66
     1
 10
0.0
 20
0.0
 30
0.0
  0
VERTEX
  5
3D1
330
3D0
100
AcDbEntity
  8
Layer 2
 62
    18
420
    65793
370
    25
100
AcDbVertex
100
AcDb2dVertex
 10
-155.101090905682
 20
-150.343250909026
 30
0.0
  0
VERTEX
  5
3D2
330
3D0
100
AcDbEntity
  8
Layer 2
 62
    18
420
    65793
370
    25
100
AcDbVertex
100
AcDb2dVertex
 10
-167.8652301760645
 20
-150.343250909026
 30
0.0
  0
SEQEND
  5
3D3
330
3D0
100
AcDbEntity
  8
Layer 2
 62
    18
420
    65793
370
    25
  0
POLYLINE
  5
3D4
330
191
100
AcDbEntity
  8
Layer 2
 62
    18
420
    65793
370
    25
100
AcDb2dPolyline
 66
     1
 10
0.0
 20
0.0
 30
0.0
  0
VERTEX
  5
3D5
330
3D4
100
AcDbEntity
  8
Layer 2
 62
    18
420
    65793
370
    25
100
AcDbVertex
100
AcDb2dVertex
 10
-174.2472821694841
 20
-150.343250909026
 30
0.0
  0
VERTEX
  5
3D6
330
3D4
100
AcDbEntity
  8
Layer 2
 62
    18
420
    65793
370
    25
100
AcDbVertex
100
AcDb2dVertex
 10
-186.8726865483753
 20
-150.343250909026
 30
0.0
  0
SEQEND
  5
3D7
330
3D4
100
AcDbEntity
  8
Layer 2
 62
    18
420
    65793
370
    25
  0
POLYLINE
  5
3D8
330
191
100
AcDbEntity
  8
Layer 2
 62
    18
420
    65793
370
    25
100
AcDb2dPolyline
 66
     1
 10
0.0
 20
0.0
 30
0.0
  0
VERTEX
  5
3D9
330
3D8
100
AcDbEntity
  8
Layer 2
 62
    18
420
    65793
370
    25
100
AcDbVertex
100
AcDb2dVertex
 10
-193.25474736268
 20
-150.343250909026
 30
0.0
  0
VERTEX
  5
3DA
330
3D8
100
AcDbEntity
  8
Layer 2
 62
    18
420
    65793
370
    25
100
AcDbVertex
100
AcDb2dVertex
 10
-204.0765011224356
 20
-150.343250909026
 30
0.0
  0
SEQEND
  5
3DB
330
3D8
100
AcDbEntity
  8
Layer 2
 62
    18
420
    65793
370
    25
  0
SPLINE
  5
3DC
330
191
100
AcDbEntity
  8
Layer 2
 62
    18
420
    65793
370
    25
100
AcDbSpline
210
0.0
220
0.0
230
1.0
 70
     8
 71
     3
 72
     8
 73
     4
 74
     0
 42
0.0000000001
 43
0.0000000001
 12
1.0
 22
0.0
 32
0.0
 13
1.0
 23
0.0
 33
0.0
 40
0.0
 40
0.0
 40
0.0
 40
0.0
 40
1.0
 40
1.0
 40
1.0
 40
1.0
 10
-204.0765011224356
 20
-150.343250909026
 30
0.0
 10
-206.7606084553456
 20
-150.2175180031693
 30
0.0
 10
-208.999596250205
 20
-147.9785302083096
 30
0.0
 10
-208.999596250205
 20
-145.2165873793086
 30
0.0
  0
POLYLINE
  5
3DD
330
191
100
AcDbEntity
  8
Layer 2
 62
    18
420
    65793
370
    25
100
AcDb2dPolyline
 66
     1
 10
0.0
 20
0.0
 30
0.0
  0
VERTEX
  5
3DE
330
3DD
100
AcDbEntity
  8
Layer 2
 62
    18
420
    65793
370
    25
100
AcDbVertex
100
AcDb2dVertex
 10
586.050866872303
 20
354.8110240343198
 30
0.0
  0
VERTEX
  5
3DF
330
3DD
100
AcDbEntity
  8
Layer 2
 62
    18
420
    65793
370
    25
100
AcDbVertex
100
AcDb2dVertex
 10
589.3805748351895
 20
358.5570072387673
 30
0.0
  0
SEQEND
  5
3E0
330
3DD
100
AcDbEntity
  8
Layer 2
 62
    18
420
    65793
370
    25
  0
POLYLINE
  5
3E1
330
191
100
AcDbEntity
  8
Layer 2
 62
    18
420
    65793
370
    25
100
AcDb2dPolyline
 66
     1
 10
0.0
 20
0.0
 30
0.0
  0
VERTEX
  5
3E2
330
3E1
100
AcDbEntity
  8
Layer 2
 62
    18
420
    65793
370
    25
100
AcDbVertex
100
AcDb2dVertex
 10
-180.0743945969369
 20
-102.3390378580299
 30
0.0
  0
VERTEX
  5
3E3
330
3E1
100
AcDbEntity
  8
Layer 2
 62
    18
420
    65793
370
    25
100
AcDbVertex
100
AcDb2dVertex
 10
-180.0743945969369
 20
266.8495039071878
 30
0.0
  0
SEQEND
  5
3E4
330
3E1
100
AcDbEntity
  8
Layer 2
 62
    18
420
    65793
370
    25
  0
POLYLINE
  5
3E5
330
191
100
AcDbEntity
  8
Layer 2
 62
    18
420
    65793
370
    25
100
AcDb2dPolyline
 66
     1
 10
0.0
 20
0.0
 30
0.0
  0
VERTEX
  5
3E6
330
3E5
100
AcDbEntity
  8
Layer 2
 62
    18
420
    65793
370
    25
100
AcDbVertex
100
AcDb2dVertex
 10
-161.0669382246261
 20
285.8569602794983
 30
0.0
  0
VERTEX
  5
3E7
330
3E5
100
AcDbEntity
  8
Layer 2
 62
    18
420
    65793
370
    25
100
AcDbVertex
100
AcDb2dVertex
 10
543.0412863327219
 20
285.8569602794983
 30
0.0
  0
SEQEND
  5
3E8
330
3E5
100
AcDbEntity
  8
Layer 2
 62
    18
420
    65793
370
    25
  0
POLYLINE
  5
3E9
330
191
100
AcDbEntity
  8
Layer 2
 62
    18
420
    65793
370
    25
100
AcDb2dPolyline
 66
     1
 10
0.0
 20
0.0
 30
0.0
  0
VERTEX
  5
3EA
330
3E9
100
AcDbEntity
  8
Layer 2
 62
    18
420
    65793
370
    25
100
AcDbVertex
100
AcDb2dVertex
 10
562.0487427050343
 20
266.8495039071878
 30
0.0
  0
VERTEX
  5
3EB
330
3E9
100
AcDbEntity
  8
Layer 2
 62
    18
420
    65793
370
    25
100
AcDbVertex
100
AcDb2dVertex
 10
562.0487427050343
 20
-102.3390378580299
 30
0.0
  0
SEQEND
  5
3EC
330
3E9
100
AcDbEntity
  8
Layer 2
 62
    18
420
    65793
370
    25
  0
SPLINE
  5
3ED
330
191
100
AcDbEntity
  8
Layer 2
 62
    18
420
    65793
370
    25
100
AcDbSpline
210
0.0
220
0.0
230
1.0
 70
     8
 71
     3
 72
     8
 73
     4
 74
     0
 42
0.0000000001
 43
0.0000000001
 12
1.0
 22
0.0
 32
0.0
 13
1.0
 23
0.0
 33
0.0
 40
0.0
 40
0.0
 40
0.0
 40
0.0
 40
1.0
 40
1.0
 40
1.0
 40
1.0
 10
543.0412863327219
 20
-121.3464765885682
 30
0.0
 10
553.6370048944566
 20
-121.2120815728787
 30
0.0
 10
562.1452784789712
 20
-112.7038961972234
 30
0.0
 10
562.1452784789712
 20
-102.2085240320819
 30
0.0
  0
POLYLINE
  5
3EE
330
191
100
AcDbEntity
  8
Layer 2
 62
    18
420
    65793
370
    25
100
AcDb2dPolyline
 66
     1
 10
0.0
 20
0.0
 30
0.0
  0
VERTEX
  5
3EF
330
3EE
100
AcDbEntity
  8
Layer 2
 62
    18
420
    65793
370
    25
100
AcDbVertex
100
AcDb2dVertex
 10
543.0412863327219
 20
-121.3464765885682
 30
0.0
  0
VERTEX
  5
3F0
330
3EE
100
AcDbEntity
  8
Layer 2
 62
    18
420
    65793
370
    25
100
AcDbVertex
100
AcDb2dVertex
 10
-161.0669382246261
 20
-121.3464765885682
 30
0.0
  0
SEQEND
  5
3F1
330
3EE
100
AcDbEntity
  8
Layer 2
 62
    18
420
    65793
370
    25
  0
SPLINE
  5
3F2
330
191
100
AcDbEntity
  8
Layer 2
 62
    18
420
    65793
370
    25
100
AcDbSpline
210
0.0
220
0.0
230
1.0
 70
     8
 71
     3
 72
     8
 73
     4
 74
     0
 42
0.0000000001
 43
0.0000000001
 12
1.0
 22
0.0
 32
0.0
 13
1.0
 23
0.0
 33
0.0
 40
0.0
 40
0.0
 40
0.0
 40
0.0
 40
1.0
 40
1.0
 40
1.0
 40
1.0
 10
-180.0743945969369
 20
-102.3390378580299
 30
0.0
 10
-179.9941421781434
 20
-112.7038961972234
 30
0.0
 10
-171.4859568024868
 20
-121.2120815728787
 30
0.0
 10
-160.9905669955744
 20
-121.2120815728787
 30
0.0
  0
SPLINE
  5
3F3
330
191
100
AcDbEntity
  8
Layer 2
 62
    18
420
    65793
370
    25
100
AcDbSpline
210
0.0
220
0.0
230
1.0
 70
     8
 71
     3
 72
     8
 73
     4
 74
     0
 42
0.0000000001
 43
0.0000000001
 12
1.0
 22
0.0
 32
0.0
 13
1.0
 23
0.0
 33
0.0
 40
0.0
 40
0.0
 40
0.0
 40
0.0
 40
1.0
 40
1.0
 40
1.0
 40
1.0
 10
-161.0669382246261
 20
285.8569602794983
 30
0.0
 10
-171.4859568024868
 20
285.8643698235505
 30
0.0
 10
-179.9941421781434
 20
277.356237373209
 30
0.0
 10
-179.9941421781434
 20
266.8608652080681
 30
0.0
  0
SPLINE
  5
3F4
330
191
100
AcDbEntity
  8
Layer 2
 62
    18
420
    65793
370
    25
100
AcDbSpline
210
0.0
220
0.0
230
1.0
 70
     8
 71
     3
 72
     8
 73
     4
 74
     0
 42
0.0000000001
 43
0.0000000001
 12
1.0
 22
0.0
 32
0.0
 13
1.0
 23
0.0
 33
0.0
 40
0.0
 40
0.0
 40
0.0
 40
0.0
 40
1.0
 40
1.0
 40
1.0
 40
1.0
 10
562.0487427050343
 20
266.8495039071878
 30
0.0
 10
562.1452784789712
 20
277.356237373209
 30
0.0
 10
553.6370048944566
 20
285.8643698235505
 30
0.0
 10
543.1416327293139
 20
285.8643698235505
 30
0.0
  0
SPLINE
  5
3F5
330
191
100
AcDbEntity
  8
Layer 2
 62
    18
420
    65793
370
    25
100
AcDbSpline
210
0.0
220
0.0
230
1.0
 70
     8
 71
     3
 72
    17
 73
    13
 74
     0
 42
0.0000000001
 43
0.0000000001
 12
1.0
 22
0.0
 32
0.0
 13
1.0
 23
0.0
 33
0.0
 40
0.0
 40
0.0
 40
0.0
 40
0.0
 40
1.0
 40
1.0
 40
1.0
 40
2.0
 40
2.0
 40
2.0
 40
3.0
 40
3.0
 40
3.0
 40
4.0
 40
4.0
 40
4.0
 40
4.0
 10
173.4365046094863
 20
322.7619938921858
 30
0.0
 10
173.5722403998136
 20
313.2045288698803
 30
0.0
 10
181.4087506071383
 20
305.3680539460997
 30
0.0
 10
191.0755240459846
 20
305.3680539460997
 30
0.0
 10
200.7423680519173
 20
305.3680539460997
 30
0.0
 10
208.5788429756982
 20
313.2045288698803
 30
0.0
 10
208.5788429756982
 20
322.871302308727
 30
0.0
 10
208.5788429756982
 20
332.5381463146603
 30
0.0
 10
200.7423680519173
 20
340.3746212384405
 30
0.0
 10
191.0755240459846
 20
340.3746212384405
 30
0.0
 10
181.4087506071383
 20
340.3746212384405
 30
0.0
 10
173.5722403998136
 20
332.5381463146603
 30
0.0
 10
173.5722403998136
 20
322.871302308727
 30
0.0
  0
POLYLINE
  5
3F6
330
191
100
AcDbEntity
  8
Layer 2
 62
    18
420
    65793
370
    25
100
AcDb2dPolyline
 66
     1
 10
0.0
 20
0.0
 30
0.0
  0
VERTEX
  5
3F7
330
3F6
100
AcDbEntity
  8
Layer 2
 62
    18
420
    65793
370
    25
100
AcDbVertex
100
AcDb2dVertex
 10
149.5731153337079
 20
313.1888629767413
 30
0.0
  0
VERTEX
  5
3F8
330
3F6
100
AcDbEntity
  8
Layer 2
 62
    18
420
    65793
370
    25
100
AcDbVertex
100
AcDb2dVertex
 10
58.00434689362159
 20
291.9615777734781
 30
0.0
  0
SEQEND
  5
3F9
330
3F6
100
AcDbEntity
  8
Layer 2
 62
    18
420
    65793
370
    25
  0
POLYLINE
  5
3FA
330
191
100
AcDbEntity
  8
Layer 2
 62
    18
420
    65793
370
    25
100
AcDb2dPolyline
 66
     1
 10
0.0
 20
0.0
 30
0.0
  0
VERTEX
  5
3FB
330
3FA
100
AcDbEntity
  8
Layer 2
 62
    18
420
    65793
370
    25
100
AcDbVertex
100
AcDb2dVertex
 10
232.4011974908444
 20
332.3350542405437
 30
0.0
  0
VERTEX
  5
3FC
330
3FA
100
AcDbEntity
  8
Layer 2
 62
    18
420
    65793
370
    25
100
AcDbVertex
100
AcDb2dVertex
 10
256.8195616161329
 20
338.0233964929618
 30
0.0
  0
SEQEND
  5
3FD
330
3FA
100
AcDbEntity
  8
Layer 2
 62
    18
420
    65793
370
    25
  0
POLYLINE
  5
3FE
330
191
100
AcDbEntity
  8
Layer 2
 62
    18
420
    65793
370
    25
100
AcDb2dPolyline
 66
     1
 10
0.0
 20
0.0
 30
0.0
  0
VERTEX
  5
3FF
330
3FE
100
AcDbEntity
  8
Layer 2
 62
    18
420
    65793
370
    25
100
AcDbVertex
100
AcDb2dVertex
 10
208.1216035405913
 20
326.7854468796172
 30
0.0
  0
VERTEX
  5
400
330
3FE
100
AcDbEntity
  8
Layer 2
 62
    18
420
    65793
370
    25
100
AcDbVertex
100
AcDb2dVertex
 10
173.9914441754533
 20
318.8772052291597
 30
0.0
  0
SEQEND
  5
401
330
3FE
100
AcDbEntity
  8
Layer 2
 62
    18
420
    65793
370
    25
  0
ENDBLK
  5
194
330
191
100
AcDbEntity
  8
0
100
AcDbBlockEnd
  0
BLOCK
  5
404
330
402
100
AcDbEntity
  8
0
100
AcDbBlockBegin
  2
block 8
 70
     0
 10
0.0
 20
0.0
 30
0.0
  3
block 8
  1

  0
MTEXT
  5
406
330
402
100
AcDbEntity
  8
Layer 2
 62
   250
420
  2301728
100
AcDbMText
 10
-146.249650311995
 20
74.18808171218961
 30
0.0
 40
4.413896285352316
 41
0.0
 46
0.0
 71
     7
 72
     1
  1
\fCalibri|b0|i0|c0|p34;\W1;    Please take care when installing this sink as an under-mount
 73
     1
 44
1.0
  0
MTEXT
  5
407
330
402
100
AcDbEntity
  8
Layer 2
 62
   250
420
  2301728
100
AcDbMText
 10
-146.249650311995
 20
68.38654091502889
 30
0.0
 40
4.413896285352316
 41
0.0
 46
0.0
 71
     7
 72
     1
  1
\fCalibri|b0|i0|c0|p34;\W1;    Please assess bench-top material before proceeding with under-mount installation
 73
     1
 44
1.0
  0
MTEXT
  5
408
330
402
100
AcDbEntity
  8
Layer 2
 62
   250
420
  2301728
100
AcDbMText
 10
-146.249650311995
 20
62.58568913696521
 30
0.0
 40
4.413896285352316
 41
0.0
 46
0.0
 71
     7
 72
     1
  1
\fCalibri|b0|i0|c0|p34;\W1;    Consult with your kitchen contractor for flushmount installation.
 73
     1
 44
1.0
  0
ENDBLK
  5
405
330
402
100
AcDbEntity
  8
0
100
AcDbBlockEnd
  0
ENDSEC
  0
SECTION
  2
ENTITIES
  0
INSERT
  5
42
330
1F
100
AcDbEntity
  8
Layer 4
100
AcDbBlockReference
  2
block 2
 10
0.0
 20
0.0
 30
0.0
  0
INSERT
  5
4D
330
1F
100
AcDbEntity
  8
Layer 4
100
AcDbBlockReference
  2
block 3
 10
0.0
 20
0.0
 30
0.0
  0
MTEXT
  5
53
330
1F
100
AcDbEntity
  8
Layer 4
 62
    18
420
    65793
100
AcDbMText
 10
-79.80495462541755
 20
1.966442864092168
 30
0.0
 40
3.712981288394926
 41
0.0
 46
0.0
 71
     7
 72
     1
  1
\fArial|b0|i0|c0|p34;\W1;INSET CUTOUT
 73
     1
 44
1.0
  0
MTEXT
  5
54
330
1F
100
AcDbEntity
  8
Layer 4
 62
   250
420
  2301728
100
AcDbMText
 10
-139.9994648901304
 20
93.48783363548222
 30
0.0
 40
2.586149116409992
 41
0.0
 46
0.0
 71
     7
 72
     1
  1
\fFrutiger LT Std 55 Roman|b0|i0|c0|p34;\W1;Cut out template: AP1491
 73
     1
 44
1.0
  0
MTEXT
  5
55
330
1F
100
AcDbEntity
  8
Layer 4
 62
   250
420
  2301728
100
AcDbMText
 10
-139.9994648901304
 20
88.54894474782805
 30
0.0
 40
2.247899999438025
 41
0.0
 46
0.0
 71
     7
 72
     1
  1
\fFrutiger LT Std 45 Light|b0|i0|c0|p34;\W0.99764;Ensure template is the correct way up
 73
     1
 44
1.0
  0
MTEXT
  5
56
330
1F
100
AcDbEntity
  8
Layer 4
 62
   250
420
  2301728
100
AcDbMText
 10
-139.9994648901304
 20
84.73901365069025
 30
0.0
 40
2.247899999438025
 41
0.0
 46
0.0
 71
     7
 72
     1
  1
\fFrutiger LT Std 45 Light|b0|i0|c0|p34;\W0.99764;and in the correct position prior
 73
     1
 44
1.0
  0
MTEXT
  5
57
330
1F
100
AcDbEntity
  8
Layer 4
 62
   250
420
  2301728
100
AcDbMText
 10
-139.9994648901304
 20
80.92908255355246
 30
0.0
 40
2.247899999438025
 41
0.0
 46
0.0
 71
     7
 72
     1
  1
\fFrutiger LT Std 45 Light|b0|i0|c0|p34;\W0.99764;to marking out and cutting the benchtop
 73
     1
 44
1.0
  0
INSERT
  5
59
330
1F
100
AcDbEntity
  8
Layer 4
100
AcDbBlockReference
  2
block 4
 10
0.0
 20
0.0
 30
0.0
  0
POLYLINE
  5
6C
330
1F
100
AcDbEntity
  8
Layer 3
 62
   250
420
  2301728
370
     9
100
AcDb2dPolyline
 66
     1
 10
0.0
 20
0.0
 30
0.0
  0
VERTEX
  5
6D
330
6C
100
AcDbEntity
  8
Layer 3
 62
   250
420
  2301728
370
     9
100
AcDbVertex
100
AcDb2dVertex
 10
348.6299663550355
 20
308.46204675134
 30
0.0
  0
VERTEX
  5
6E
330
6C
100
AcDbEntity
  8
Layer 3
 62
   250
420
  2301728
370
     9
100
AcDbVertex
100
AcDb2dVertex
 10
348.6299663550355
 20
93.48782369841324
 30
0.0
  0
SEQEND
  5
6F
330
6C
100
AcDbEntity
  8
Layer 3
 62
   250
420
  2301728
370
     9
  0
POLYLINE
  5
70
330
1F
100
AcDbEntity
  8
Layer 3
 62
   250
420
  2301728
370
     9
100
AcDb2dPolyline
 66
     1
 10
0.0
 20
0.0
 30
0.0
  0
VERTEX
  5
71
330
70
100
AcDbEntity
  8
Layer 3
 62
   250
420
  2301728
370
     9
100
AcDbVertex
100
AcDb2dVertex
 10
257.0997878621941
 20
338.5491846216664
 30
0.0
  0
VERTEX
  5
72
330
70
100
AcDbEntity
  8
Layer 3
 62
   250
420
  2301728
370
     9
100
AcDbVertex
100
AcDb2dVertex
 10
89.77322851904268
 20
299.2052316233448
 30
0.0
  0
SEQEND
  5
73
330
70
100
AcDbEntity
  8
Layer 3
 62
   250
420
  2301728
370
     9
  0
POLYLINE
  5
74
330
1F
100
AcDbEntity
  8
Layer 3
 62
   250
420
  2301728
370
     9
100
AcDb2dPolyline
 66
     1
 10
0.0
 20
0.0
 30
0.0
  0
VERTEX
  5
75
330
74
100
AcDbEntity
  8
Layer 3
 62
   250
420
  2301728
370
     9
100
AcDbVertex
100
AcDb2dVertex
 10
348.6299663550355
 20
-97.95943307342557
 30
0.0
  0
VERTEX
  5
76
330
74
100
AcDbEntity
  8
Layer 3
 62
   250
420
  2301728
370
     9
100
AcDbVertex
100
AcDb2dVertex
 10
348.6299663550355
 20
45.83585374956422
 30
0.0
  0
SEQEND
  5
77
330
74
100
AcDbEntity
  8
Layer 3
 62
   250
420
  2301728
370
     9
  0
POLYLINE
  5
78
330
1F
100
AcDbEntity
  8
Layer 3
 62
   250
420
  2301728
370
    35
100
AcDb2dPolyline
 66
     1
 10
0.0
 20
0.0
 30
0.0
  0
VERTEX
  5
79
330
78
100
AcDbEntity
  8
Layer 3
 62
   250
420
  2301728
370
    35
100
AcDbVertex
100
AcDb2dVertex
 10
340.2966144126742
 20
308.3755870186757
 30
0.0
  0
VERTEX
  5
7A
330
78
100
AcDbEntity
  8
Layer 3
 62
   250
420
  2301728
370
    35
100
AcDbVertex
100
AcDb2dVertex
 10
356.96328301962
 20
308.3755870186757
 30
0.0
  0
VERTEX
  5
7B
330
78
100
AcDbEntity
  8
Layer 3
 62
   250
420
  2301728
370
    35
100
AcDbVertex
100
AcDb2dVertex
 10
348.6303191328133
 20
358.3756204506013
 30
0.0
  0
VERTEX
  5
7C
330
78
100
AcDbEntity
  8
Layer 3
 62
   250
420
  2301728
370
    35
100
AcDbVertex
100
AcDb2dVertex
 10
340.2966144126742
 20
308.3755870186757
 30
0.0
  0
SEQEND
  5
7D
330
78
100
AcDbEntity
  8
Layer 3
 62
   250
420
  2301728
370
    35
  0
POLYLINE
  5
7E
330
1F
100
AcDbEntity
  8
Layer 3
 62
   250
420
  2301728
370
    35
100
AcDb2dPolyline
 66
     1
 10
0.0
 20
0.0
 30
0.0
  0
VERTEX
  5
7F
330
7E
100
AcDbEntity
  8
Layer 3
 62
   250
420
  2301728
370
    35
100
AcDbVertex
100
AcDb2dVertex
 10
267.0994806786215
 20
309.9701411862276
 30
0.0
  0
VERTEX
  5
80
330
7E
100
AcDbEntity
  8
Layer 3
 62
   250
420
  2301728
370
    35
100
AcDbVertex
100
AcDb2dVertex
 10
271.3865399177607
 20
309.9701411862276
 30
0.0
  0
VERTEX
  5
81
330
7E
100
AcDbEntity
  8
Layer 3
 62
   250
420
  2301728
370
    35
100
AcDbVertex
100
AcDb2dVertex
 10
269.2431055780716
 20
322.8313260058663
 30
0.0
  0
VERTEX
  5
82
330
7E
100
AcDbEntity
  8
Layer 3
 62
   250
420
  2301728
370
    35
100
AcDbVertex
100
AcDb2dVertex
 10
267.0994806786215
 20
309.9701411862276
 30
0.0
  0
SEQEND
  5
83
330
7E
100
AcDbEntity
  8
Layer 3
 62
   250
420
  2301728
370
    35
  0
POLYLINE
  5
84
330
1F
100
AcDbEntity
  8
Layer 3
 62
   250
420
  2301728
370
    35
100
AcDb2dPolyline
 66
     1
 10
0.0
 20
0.0
 30
0.0
  0
VERTEX
  5
85
330
84
100
AcDbEntity
  8
Layer 3
 62
   250
420
  2301728
370
    35
100
AcDbVertex
100
AcDb2dVertex
 10
271.3865398673116
 20
299.5445158236081
 30
0.0
  0
VERTEX
  5
86
330
84
100
AcDbEntity
  8
Layer 3
 62
   250
420
  2301728
370
    35
100
AcDbVertex
100
AcDb2dVertex
 10
267.0994806281731
 20
299.5445158239938
 30
0.0
  0
VERTEX
  5
87
330
84
100
AcDbEntity
  8
Layer 3
 62
   250
420
  2301728
370
    35
100
AcDbVertex
100
AcDb2dVertex
 10
269.2429149667064
 20
286.6833310041622
 30
0.0
  0
VERTEX
  5
88
330
84
100
AcDbEntity
  8
Layer 3
 62
   250
420
  2301728
370
    35
100
AcDbVertex
100
AcDb2dVertex
 10
271.3865398673116
 20
299.5445158236081
 30
0.0
  0
SEQEND
  5
89
330
84
100
AcDbEntity
  8
Layer 3
 62
   250
420
  2301728
370
    35
  0
POLYLINE
  5
8A
330
1F
100
AcDbEntity
  8
Layer 3
 62
   250
420
  2301728
370
    35
100
AcDb2dPolyline
 66
     1
 10
0.0
 20
0.0
 30
0.0
  0
VERTEX
  5
8B
330
8A
100
AcDbEntity
  8
Layer 3
 62
   250
420
  2301728
370
    35
100
AcDbVertex
100
AcDb2dVertex
 10
151.2616580571673
 20
317.2494704449223
 30
0.0
  0
VERTEX
  5
8C
330
8A
100
AcDbEntity
  8
Layer 3
 62
   250
420
  2301728
370
    35
100
AcDbVertex
100
AcDb2dVertex
 10
153.0148943023159
 20
309.965097016816
 30
0.0
  0
VERTEX
  5
8D
330
8A
100
AcDbEntity
  8
Layer 3
 62
   250
420
  2301728
370
    35
100
AcDbVertex
100
AcDb2dVertex
 10
173.9914474975023
 20
318.8668334756592
 30
0.0
  0
VERTEX
  5
8E
330
8A
100
AcDbEntity
  8
Layer 3
 62
   250
420
  2301728
370
    35
100
AcDbVertex
100
AcDb2dVertex
 10
151.2616580571673
 20
317.2494704449223
 30
0.0
  0
SEQEND
  5
8F
330
8A
100
AcDbEntity
  8
Layer 3
 62
   250
420
  2301728
370
    35
  0
POLYLINE
  5
90
330
1F
100
AcDbEntity
  8
Layer 3
 62
   250
420
  2301728
370
    35
100
AcDb2dPolyline
 66
     1
 10
0.0
 20
0.0
 30
0.0
  0
VERTEX
  5
91
330
90
100
AcDbEntity
  8
Layer 3
 62
   250
420
  2301728
370
    35
100
AcDbVertex
100
AcDb2dVertex
 10
230.3186850742747
 20
328.4028126063691
 30
0.0
  0
VERTEX
  5
92
330
90
100
AcDbEntity
  8
Layer 3
 62
   250
420
  2301728
370
    35
100
AcDbVertex
100
AcDb2dVertex
 10
228.5654488284716
 20
335.6871860343189
 30
0.0
  0
VERTEX
  5
93
330
90
100
AcDbEntity
  8
Layer 3
 62
   250
420
  2301728
370
    35
100
AcDbVertex
100
AcDb2dVertex
 10
207.5888956340848
 20
326.7854495735913
 30
0.0
  0
VERTEX
  5
94
330
90
100
AcDbEntity
  8
Layer 3
 62
   250
420
  2301728
370
    35
100
AcDbVertex
100
AcDb2dVertex
 10
230.3186850742747
 20
328.4028126063691
 30
0.0
  0
SEQEND
  5
95
330
90
100
AcDbEntity
  8
Layer 3
 62
   250
420
  2301728
370
    35
  0
POLYLINE
  5
96
330
1F
100
AcDbEntity
  8
Layer 3
 62
   250
420
  2301728
370
    35
100
AcDb2dPolyline
 66
     1
 10
0.0
 20
0.0
 30
0.0
  0
VERTEX
  5
97
330
96
100
AcDbEntity
  8
Layer 3
 62
   250
420
  2301728
370
    35
100
AcDbVertex
100
AcDb2dVertex
 10
340.2966144126742
 20
-97.95943307342557
 30
0.0
  0
VERTEX
  5
98
330
96
100
AcDbEntity
  8
Layer 3
 62
   250
420
  2301728
370
    35
100
AcDbVertex
100
AcDb2dVertex
 10
356.96328301962
 20
-97.95943307342557
 30
0.0
  0
VERTEX
  5
99
330
96
100
AcDbEntity
  8
Layer 3
 62
   250
420
  2301728
370
    35
100
AcDbVertex
100
AcDb2dVertex
 10
348.6303191328133
 20
-147.9594741720369
 30
0.0
  0
VERTEX
  5
9A
330
96
100
AcDbEntity
  8
Layer 3
 62
   250
420
  2301728
370
    35
100
AcDbVertex
100
AcDb2dVertex
 10
340.2966144126742
 20
-97.95943307342557
 30
0.0
  0
SEQEND
  5
9B
330
96
100
AcDbEntity
  8
Layer 3
 62
   250
420
  2301728
370
    35
  0
MTEXT
  5
9C
330
1F
100
AcDbEntity
  8
Layer 3
 62
   250
420
  2301728
100
AcDbMText
 10
325.2059033746447
 20
60.26489383462454
 30
0.0
 40
19.981333328338
 41
0.0
 46
0.0
 71
     7
 72
     1
  1
\fFrutiger LT Std 55 Roman|b0|i0|c0|p34;\W1;510
 73
     1
 44
1.0
  0
MTEXT
  5
9D
330
1F
100
AcDbEntity
  8
Layer 3
 62
   250
420
  2301728
100
AcDbMText
 10
263.6951876510901
 20
301.2851412549739
 30
0.0
 40
7.628690762837904
 41
0.0
 46
0.0
 71
     7
 72
     1
  1
\fFrutiger LT Std 55 Roman|b0|i0|c0|p34;\W1;37
 73
     1
 44
1.0
  0
MTEXT
  5
9E
330
1F
100
AcDbEntity
  8
Layer 3
 62
   250
420
  2301728
100
AcDbMText
 10
101.3469398137833
 20
305.1009025893857
 30
0.0
 40
19.78531401214236
 41
0.0
 46
0.0
 71
     7
 72
     1
  1
\fFrutiger LT Std 55 Roman|b0|i0|c0|p34;\W1;ø35
 11
0.9787285101416023
 21
0.2051597022711805
 31
0.0
 73
     1
 44
1.0
  0
POLYLINE
  5
9F
330
1F
100
AcDbEntity
  8
Layer 3
 62
   250
420
  2301728
370
     9
100
AcDb2dPolyline
 66
     1
 10
0.0
 20
0.0
 30
0.0
  0
VERTEX
  5
A0
330
9F
100
AcDbEntity
  8
Layer 3
 62
   250
420
  2301728
370
     9
100
AcDbVertex
100
AcDb2dVertex
 10
541.1318920611442
 20
205.9163988007091
 30
0.0
  0
VERTEX
  5
A1
330
9F
100
AcDbEntity
  8
Layer 3
 62
   250
420
  2301728
370
     9
100
AcDbVertex
100
AcDb2dVertex
 10
232.4012008347997
 20
205.9163988225988
 30
0.0
  0
SEQEND
  5
A2
330
9F
100
AcDbEntity
  8
Layer 3
 62
   250
420
  2301728
370
     9
  0
POLYLINE
  5
A3
330
1F
100
AcDbEntity
  8
Layer 3
 62
   250
420
  2301728
370
     9
100
AcDb2dPolyline
 66
     1
 10
0.0
 20
0.0
 30
0.0
  0
VERTEX
  5
A4
330
A3
100
AcDbEntity
  8
Layer 3
 62
   250
420
  2301728
370
     9
100
AcDbVertex
100
AcDb2dVertex
 10
-158.8227690727983
 20
205.9163988541877
 30
0.0
  0
VERTEX
  5
A5
330
A3
100
AcDbEntity
  8
Layer 3
 62
   250
420
  2301728
370
     9
100
AcDbVertex
100
AcDb2dVertex
 10
177.2277370413249
 20
205.9163988299148
 30
0.0
  0
SEQEND
  5
A6
330
A3
100
AcDbEntity
  8
Layer 3
 62
   250
420
  2301728
370
     9
  0
POLYLINE
  5
A7
330
1F
100
AcDbEntity
  8
Layer 3
 62
   250
420
  2301728
370
    35
100
AcDb2dPolyline
 66
     1
 10
0.0
 20
0.0
 30
0.0
  0
VERTEX
  5
A8
330
A7
100
AcDbEntity
  8
Layer 3
 62
   250
420
  2301728
370
    35
100
AcDbVertex
100
AcDb2dVertex
 10
591.0454660655206
 20
205.9160460108841
 30
0.0
  0
VERTEX
  5
A9
330
A7
100
AcDbEntity
  8
Layer 3
 62
   250
420
  2301728
370
    35
100
AcDbVertex
100
AcDb2dVertex
 10
541.045432634718
 20
214.2497507377578
 30
0.0
  0
VERTEX
  5
AA
330
A7
100
AcDbEntity
  8
Layer 3
 62
   250
420
  2301728
370
    35
100
AcDbVertex
100
AcDb2dVertex
 10
541.0454326324708
 20
197.5830821308137
 30
0.0
  0
SEQEND
  5
AB
330
A7
100
AcDbEntity
  8
Layer 3
 62
   250
420
  2301728
370
    35
  0
POLYLINE
  5
AC
330
1F
100
AcDbEntity
  8
Layer 3
 62
   250
420
  2301728
370
    35
100
AcDb2dPolyline
 66
     1
 10
0.0
 20
0.0
 30
0.0
  0
VERTEX
  5
AD
330
AC
100
AcDbEntity
  8
Layer 3
 62
   250
420
  2301728
370
    35
100
AcDbVertex
100
AcDb2dVertex
 10
541.0454326324708
 20
197.5830821308137
 30
0.0
  0
VERTEX
  5
AE
330
AC
100
AcDbEntity
  8
Layer 3
 62
   250
420
  2301728
370
    35
100
AcDbVertex
100
AcDb2dVertex
 10
591.0454660655206
 20
205.9160460108841
 30
0.0
  0
SEQEND
  5
AF
330
AC
100
AcDbEntity
  8
Layer 3
 62
   250
420
  2301728
370
    35
  0
POLYLINE
  5
B0
330
1F
100
AcDbEntity
  8
Layer 3
 62
   250
420
  2301728
370
    35
100
AcDb2dPolyline
 66
     1
 10
0.0
 20
0.0
 30
0.0
  0
VERTEX
  5
B1
330
B0
100
AcDbEntity
  8
Layer 3
 62
   250
420
  2301728
370
    35
100
AcDbVertex
100
AcDb2dVertex
 10
-208.8228147843303
 20
205.9160460778204
 30
0.0
  0
VERTEX
  5
B2
330
B0
100
AcDbEntity
  8
Layer 3
 62
   250
420
  2301728
370
    35
100
AcDbVertex
100
AcDb2dVertex
 10
-158.8227736845966
 20
214.2497507912251
 30
0.0
  0
VERTEX
  5
B3
330
B0
100
AcDbEntity
  8
Layer 3
 62
   250
420
  2301728
370
    35
100
AcDbVertex
100
AcDb2dVertex
 10
-158.8227736868409
 20
197.5830821842804
 30
0.0
  0
SEQEND
  5
B4
330
B0
100
AcDbEntity
  8
Layer 3
 62
   250
420
  2301728
370
    35
  0
POLYLINE
  5
B5
330
1F
100
AcDbEntity
  8
Layer 3
 62
   250
420
  2301728
370
    35
100
AcDb2dPolyline
 66
     1
 10
0.0
 20
0.0
 30
0.0
  0
VERTEX
  5
B6
330
B5
100
AcDbEntity
  8
Layer 3
 62
   250
420
  2301728
370
    35
100
AcDbVertex
100
AcDb2dVertex
 10
-158.8227736868409
 20
197.5830821842804
 30
0.0
  0
VERTEX
  5
B7
330
B5
100
AcDbEntity
  8
Layer 3
 62
   250
420
  2301728
370
    35
100
AcDbVertex
100
AcDb2dVertex
 10
-208.8228147843303
 20
205.9160460778204
 30
0.0
  0
SEQEND
  5
B8
330
B5
100
AcDbEntity
  8
Layer 3
 62
   250
420
  2301728
370
    35
  0
POLYLINE
  5
B9
330
1F
100
AcDbEntity
  8
Layer 3
 62
   250
420
  2301728
370
     9
100
AcDb2dPolyline
 66
     1
 10
0.0
 20
0.0
 30
0.0
  0
VERTEX
  5
BA
330
B9
100
AcDbEntity
  8
Layer 3
 62
   250
420
  2301728
370
     9
100
AcDbVertex
100
AcDb2dVertex
 10
-158.8227690727983
 20
250.8943381943429
 30
0.0
  0
VERTEX
  5
BB
330
B9
100
AcDbEntity
  8
Layer 3
 62
   250
420
  2301728
370
     9
100
AcDbVertex
100
AcDb2dVertex
 10
-40.56309253950116
 20
250.89433817007
 30
0.0
  0
SEQEND
  5
BC
330
B9
100
AcDbEntity
  8
Layer 3
 62
   250
420
  2301728
370
     9
  0
POLYLINE
  5
BD
330
1F
100
AcDbEntity
  8
Layer 3
 62
   250
420
  2301728
370
    35
100
AcDb2dPolyline
 66
     1
 10
0.0
 20
0.0
 30
0.0
  0
VERTEX
  5
BE
330
BD
100
AcDbEntity
  8
Layer 3
 62
   250
420
  2301728
370
    35
100
AcDbVertex
100
AcDb2dVertex
 10
-208.8228147843303
 20
250.8939854179756
 30
0.0
  0
VERTEX
  5
BF
330
BD
100
AcDbEntity
  8
Layer 3
 62
   250
420
  2301728
370
    35
100
AcDbVertex
100
AcDb2dVertex
 10
-158.8227736845966
 20
259.2276901313804
 30
0.0
  0
VERTEX
  5
C0
330
BD
100
AcDbEntity
  8
Layer 3
 62
   250
420
  2301728
370
    35
100
AcDbVertex
100
AcDb2dVertex
 10
-158.8227736868409
 20
242.5610215244356
 30
0.0
  0
SEQEND
  5
C1
330
BD
100
AcDbEntity
  8
Layer 3
 62
   250
420
  2301728
370
    35
  0
POLYLINE
  5
C2
330
1F
100
AcDbEntity
  8
Layer 3
 62
   250
420
  2301728
370
    35
100
AcDb2dPolyline
 66
     1
 10
0.0
 20
0.0
 30
0.0
  0
VERTEX
  5
C3
330
C2
100
AcDbEntity
  8
Layer 3
 62
   250
420
  2301728
370
    35
100
AcDbVertex
100
AcDb2dVertex
 10
-158.8227736868409
 20
242.5610215244356
 30
0.0
  0
VERTEX
  5
C4
330
C2
100
AcDbEntity
  8
Layer 3
 62
   250
420
  2301728
370
    35
100
AcDbVertex
100
AcDb2dVertex
 10
-208.8228147843303
 20
250.8939854179756
 30
0.0
  0
SEQEND
  5
C5
330
C2
100
AcDbEntity
  8
Layer 3
 62
   250
420
  2301728
370
    35
  0
POLYLINE
  5
C6
330
1F
100
AcDbEntity
  8
Layer 3
 62
   250
420
  2301728
370
     9
100
AcDb2dPolyline
 66
     1
 10
0.0
 20
0.0
 30
0.0
  0
VERTEX
  5
C7
330
C6
100
AcDbEntity
  8
Layer 3
 62
   250
420
  2301728
370
     9
100
AcDbVertex
100
AcDb2dVertex
 10
141.6114401243292
 20
250.8943745482844
 30
0.0
  0
VERTEX
  5
C8
330
C6
100
AcDbEntity
  8
Layer 3
 62
   250
420
  2301728
370
     9
100
AcDbVertex
100
AcDb2dVertex
 10
16.38218917999905
 20
250.8943745631041
 30
0.0
  0
SEQEND
  5
C9
330
C6
100
AcDbEntity
  8
Layer 3
 62
   250
420
  2301728
370
     9
  0
POLYLINE
  5
CA
330
1F
100
AcDbEntity
  8
Layer 3
 62
   250
420
  2301728
370
     9
100
AcDb2dPolyline
 66
     1
 10
0.0
 20
0.0
 30
0.0
  0
VERTEX
  5
CB
330
CA
100
AcDbEntity
  8
Layer 3
 62
   250
420
  2301728
370
     9
100
AcDbVertex
100
AcDb2dVertex
 10
285.8975511993688
 20
322.8313272483991
 30
0.0
  0
VERTEX
  5
CC
330
CA
100
AcDbEntity
  8
Layer 3
 62
   250
420
  2301728
370
     9
100
AcDbVertex
100
AcDb2dVertex
 10
160.6683002550386
 20
322.8313272632188
 30
0.0
  0
SEQEND
  5
CD
330
CA
100
AcDbEntity
  8
Layer 3
 62
   250
420
  2301728
370
     9
  0
POLYLINE
  5
CE
330
1F
100
AcDbEntity
  8
Layer 3
 62
   250
420
  2301728
370
     9
100
AcDb2dPolyline
 66
     1
 10
0.0
 20
0.0
 30
0.0
  0
VERTEX
  5
CF
330
CE
100
AcDbEntity
  8
Layer 3
 62
   250
420
  2301728
370
     9
100
AcDbVertex
100
AcDb2dVertex
 10
191.6114858777041
 20
242.561022611247
 30
0.0
  0
VERTEX
  5
D0
330
CE
100
AcDbEntity
  8
Layer 3
 62
   250
420
  2301728
370
     9
100
AcDbVertex
100
AcDb2dVertex
 10
191.6114858877974
 20
386.0154782909427
 30
0.0
  0
SEQEND
  5
D1
330
CE
100
AcDbEntity
  8
Layer 3
 62
   250
420
  2301728
370
     9
  0
POLYLINE
  5
D2
330
1F
100
AcDbEntity
  8
Layer 3
 62
   250
420
  2301728
370
    35
100
AcDb2dPolyline
 66
     1
 10
0.0
 20
0.0
 30
0.0
  0
VERTEX
  5
D3
330
D2
100
AcDbEntity
  8
Layer 3
 62
   250
420
  2301728
370
    35
100
AcDbVertex
100
AcDb2dVertex
 10
191.6114858358608
 20
250.8947273291413
 30
0.0
  0
VERTEX
  5
D4
330
D2
100
AcDbEntity
  8
Layer 3
 62
   250
420
  2301728
370
    35
100
AcDbVertex
100
AcDb2dVertex
 10
141.6114447368757
 20
242.561022611247
 30
0.0
  0
VERTEX
  5
D5
330
D2
100
AcDbEntity
  8
Layer 3
 62
   250
420
  2301728
370
    35
100
AcDbVertex
100
AcDb2dVertex
 10
141.6114447376239
 20
259.2276912181917
 30
0.0
  0
SEQEND
  5
D6
330
D2
100
AcDbEntity
  8
Layer 3
 62
   250
420
  2301728
370
    35
  0
POLYLINE
  5
D7
330
1F
100
AcDbEntity
  8
Layer 3
 62
   250
420
  2301728
370
    35
100
AcDb2dPolyline
 66
     1
 10
0.0
 20
0.0
 30
0.0
  0
VERTEX
  5
D8
330
D7
100
AcDbEntity
  8
Layer 3
 62
   250
420
  2301728
370
    35
100
AcDbVertex
100
AcDb2dVertex
 10
141.6114447376239
 20
259.2276912181917
 30
0.0
  0
VERTEX
  5
D9
330
D7
100
AcDbEntity
  8
Layer 3
 62
   250
420
  2301728
370
    35
100
AcDbVertex
100
AcDb2dVertex
 10
191.6114858358608
 20
250.8947273291413
 30
0.0
  0
SEQEND
  5
DA
330
D7
100
AcDbEntity
  8
Layer 3
 62
   250
420
  2301728
370
    35
  0
MTEXT
  5
DB
330
1F
100
AcDbEntity
  8
Layer 3
 62
   250
420
  2301728
100
AcDbMText
 10
180.5391953758721
 20
197.5828794197341
 30
0.0
 40
19.981333328338
 41
0.0
 46
0.0
 71
     7
 72
     1
  1
\fFrutiger LT Std 55 Roman|b0|i0|c0|p34;\W1;800
 73
     1
 44
1.0
  0
MTEXT
  5
DC
330
1F
100
AcDbEntity
  8
Layer 3
 62
   250
420
  2301728
100
AcDbMText
 10
-34.39682378968639
 20
242.5611632694379
 30
0.0
 40
19.981333328338
 41
0.0
 46
0.0
 71
     7
 72
     1
  1
\fFrutiger LT Std 55 Roman|b0|i0|c0|p34;\W1;400
 73
     1
 44
1.0
  0
POLYLINE
  5
DD
330
1F
100
AcDbEntity
  8
Layer 3
 62
   250
420
  2301728
370
     9
100
AcDb2dPolyline
 66
     1
 10
0.0
 20
0.0
 30
0.0
  0
VERTEX
  5
DE
330
DD
100
AcDbEntity
  8
Layer 3
 62
   250
420
  2301728
370
     9
100
AcDbVertex
100
AcDb2dVertex
 10
531.142628416923
 20
168.2051307348297
 30
0.0
  0
VERTEX
  5
DF
330
DD
100
AcDbEntity
  8
Layer 3
 62
   250
420
  2301728
370
     9
100
AcDbVertex
100
AcDb2dVertex
 10
232.4012008347997
 20
168.2051307567194
 30
0.0
  0
SEQEND
  5
E0
330
DD
100
AcDbEntity
  8
Layer 3
 62
   250
420
  2301728
370
     9
  0
POLYLINE
  5
E1
330
1F
100
AcDbEntity
  8
Layer 3
 62
   250
420
  2301728
370
     9
100
AcDb2dPolyline
 66
     1
 10
0.0
 20
0.0
 30
0.0
  0
VERTEX
  5
E2
330
E1
100
AcDbEntity
  8
Layer 3
 62
   250
420
  2301728
370
     9
100
AcDbVertex
100
AcDb2dVertex
 10
-147.8138841411907
 20
168.2051307883083
 30
0.0
  0
VERTEX
  5
E3
330
E1
100
AcDbEntity
  8
Layer 3
 62
   250
420
  2301728
370
     9
100
AcDbVertex
100
AcDb2dVertex
 10
177.2277370413249
 20
168.2051307640354
 30
0.0
  0
SEQEND
  5
E4
330
E1
100
AcDbEntity
  8
Layer 3
 62
   250
420
  2301728
370
     9
  0
POLYLINE
  5
E5
330
1F
100
AcDbEntity
  8
Layer 3
 62
   250
420
  2301728
370
    35
100
AcDb2dPolyline
 66
     1
 10
0.0
 20
0.0
 30
0.0
  0
VERTEX
  5
E6
330
E5
100
AcDbEntity
  8
Layer 3
 62
   250
420
  2301728
370
    35
100
AcDbVertex
100
AcDb2dVertex
 10
581.0562024434047
 20
168.2047779450047
 30
0.0
  0
VERTEX
  5
E7
330
E5
100
AcDbEntity
  8
Layer 3
 62
   250
420
  2301728
370
    35
100
AcDbVertex
100
AcDb2dVertex
 10
531.0561690125983
 20
176.5384826718777
 30
0.0
  0
VERTEX
  5
E8
330
E5
100
AcDbEntity
  8
Layer 3
 62
   250
420
  2301728
370
    35
100
AcDbVertex
100
AcDb2dVertex
 10
531.0561690103549
 20
159.871814064934
 30
0.0
  0
SEQEND
  5
E9
330
E5
100
AcDbEntity
  8
Layer 3
 62
   250
420
  2301728
370
    35
  0
POLYLINE
  5
EA
330
1F
100
AcDbEntity
  8
Layer 3
 62
   250
420
  2301728
370
    35
100
AcDb2dPolyline
 66
     1
 10
0.0
 20
0.0
 30
0.0
  0
VERTEX
  5
EB
330
EA
100
AcDbEntity
  8
Layer 3
 62
   250
420
  2301728
370
    35
100
AcDbVertex
100
AcDb2dVertex
 10
531.0561690103549
 20
159.871814064934
 30
0.0
  0
VERTEX
  5
EC
330
EA
100
AcDbEntity
  8
Layer 3
 62
   250
420
  2301728
370
    35
100
AcDbVertex
100
AcDb2dVertex
 10
581.0562024434047
 20
168.2047779450047
 30
0.0
  0
SEQEND
  5
ED
330
EA
100
AcDbEntity
  8
Layer 3
 62
   250
420
  2301728
370
    35
  0
POLYLINE
  5
EE
330
1F
100
AcDbEntity
  8
Layer 3
 62
   250
420
  2301728
370
    35
100
AcDb2dPolyline
 66
     1
 10
0.0
 20
0.0
 30
0.0
  0
VERTEX
  5
EF
330
EE
100
AcDbEntity
  8
Layer 3
 62
   250
420
  2301728
370
    35
100
AcDbVertex
100
AcDb2dVertex
 10
-197.8139299028307
 20
168.204778011941
 30
0.0
  0
VERTEX
  5
F0
330
EE
100
AcDbEntity
  8
Layer 3
 62
   250
420
  2301728
370
    35
100
AcDbVertex
100
AcDb2dVertex
 10
-147.8138888030973
 20
176.5384827253454
 30
0.0
  0
VERTEX
  5
F1
330
EE
100
AcDbEntity
  8
Layer 3
 62
   250
420
  2301728
370
    35
100
AcDbVertex
100
AcDb2dVertex
 10
-147.813888805342
 20
159.871814118401
 30
0.0
  0
SEQEND
  5
F2
330
EE
100
AcDbEntity
  8
Layer 3
 62
   250
420
  2301728
370
    35
  0
POLYLINE
  5
F3
330
1F
100
AcDbEntity
  8
Layer 3
 62
   250
420
  2301728
370
    35
100
AcDb2dPolyline
 66
     1
 10
0.0
 20
0.0
 30
0.0
  0
VERTEX
  5
F4
330
F3
100
AcDbEntity
  8
Layer 3
 62
   250
420
  2301728
370
    35
100
AcDbVertex
100
AcDb2dVertex
 10
-147.813888805342
 20
159.871814118401
 30
0.0
  0
VERTEX
  5
F5
330
F3
100
AcDbEntity
  8
Layer 3
 62
   250
420
  2301728
370
    35
100
AcDbVertex
100
AcDb2dVertex
 10
-197.8139299028307
 20
168.204778011941
 30
0.0
  0
SEQEND
  5
F6
330
F3
100
AcDbEntity
  8
Layer 3
 62
   250
420
  2301728
370
    35
  0
MTEXT
  5
F7
330
1F
100
AcDbEntity
  8
Layer 3
 62
   250
420
  2301728
100
AcDbMText
 10
180.5391953758721
 20
159.8716153910759
 30
0.0
 40
19.981333328338
 41
0.0
 46
0.0
 71
     7
 72
     1
  1
\fFrutiger LT Std 55 Roman|b0|i0|c0|p34;\W1;780
 73
     1
 44
1.0
  0
POLYLINE
  5
F8
330
1F
100
AcDbEntity
  8
Layer 3
 62
   250
420
  2301728
370
     9
100
AcDb2dPolyline
 66
     1
 10
0.0
 20
0.0
 30
0.0
  0
VERTEX
  5
F9
330
F8
100
AcDbEntity
  8
Layer 3
 62
   250
420
  2301728
370
     9
100
AcDbVertex
100
AcDb2dVertex
 10
512.1351720225086
 20
136.5722868668533
 30
0.0
  0
VERTEX
  5
FA
330
F8
100
AcDbEntity
  8
Layer 3
 62
   250
420
  2301728
370
     9
100
AcDbVertex
100
AcDb2dVertex
 10
232.4012008347997
 20
136.5722868887426
 30
0.0
  0
SEQEND
  5
FB
330
F8
100
AcDbEntity
  8
Layer 3
 62
   250
420
  2301728
370
     9
  0
POLYLINE
  5
FC
330
1F
100
AcDbEntity
  8
Layer 3
 62
   250
420
  2301728
370
     9
100
AcDb2dPolyline
 66
     1
 10
0.0
 20
0.0
 30
0.0
  0
VERTEX
  5
FD
330
FC
100
AcDbEntity
  8
Layer 3
 62
   250
420
  2301728
370
     9
100
AcDbVertex
100
AcDb2dVertex
 10
-130.6560395304169
 20
136.5722869203315
 30
0.0
  0
VERTEX
  5
FE
330
FC
100
AcDbEntity
  8
Layer 3
 62
   250
420
  2301728
370
     9
100
AcDbVertex
100
AcDb2dVertex
 10
177.2277370413249
 20
136.5722868960586
 30
0.0
  0
SEQEND
  5
FF
330
FC
100
AcDbEntity
  8
Layer 3
 62
   250
420
  2301728
370
     9
  0
POLYLINE
  5
100
330
1F
100
AcDbEntity
  8
Layer 3
 62
   250
420
  2301728
370
    35
100
AcDb2dPolyline
 66
     1
 10
0.0
 20
0.0
 30
0.0
  0
VERTEX
  5
101
330
100
100
AcDbEntity
  8
Layer 3
 62
   250
420
  2301728
370
    35
100
AcDbVertex
100
AcDb2dVertex
 10
562.0487466859273
 20
136.5719340770279
 30
0.0
  0
VERTEX
  5
102
330
100
100
AcDbEntity
  8
Layer 3
 62
   250
420
  2301728
370
    35
100
AcDbVertex
100
AcDb2dVertex
 10
512.0487132551247
 20
144.905638803901
 30
0.0
  0
VERTEX
  5
103
330
100
100
AcDbEntity
  8
Layer 3
 62
   250
420
  2301728
370
    35
100
AcDbVertex
100
AcDb2dVertex
 10
512.0487132528774
 20
128.2389701969572
 30
0.0
  0
SEQEND
  5
104
330
100
100
AcDbEntity
  8
Layer 3
 62
   250
420
  2301728
370
    35
  0
POLYLINE
  5
105
330
1F
100
AcDbEntity
  8
Layer 3
 62
   250
420
  2301728
370
    35
100
AcDb2dPolyline
 66
     1
 10
0.0
 20
0.0
 30
0.0
  0
VERTEX
  5
106
330
105
100
AcDbEntity
  8
Layer 3
 62
   250
420
  2301728
370
    35
100
AcDbVertex
100
AcDb2dVertex
 10
512.0487132528774
 20
128.2389701969572
 30
0.0
  0
VERTEX
  5
107
330
105
100
AcDbEntity
  8
Layer 3
 62
   250
420
  2301728
370
    35
100
AcDbVertex
100
AcDb2dVertex
 10
562.0487466859273
 20
136.5719340770279
 30
0.0
  0
SEQEND
  5
108
330
105
100
AcDbEntity
  8
Layer 3
 62
   250
420
  2301728
370
    35
  0
INSERT
  5
10A
330
1F
100
AcDbEntity
  8
Layer 3
100
AcDbBlockReference
  2
block 5
 10
0.0
 20
0.0
 30
0.0
  0
POLYLINE
  5
116
330
1F
100
AcDbEntity
  8
Layer 3
 62
   250
420
  2301728
370
     9
100
AcDb2dPolyline
 66
     1
 10
0.0
 20
0.0
 30
0.0
  0
VERTEX
  5
117
330
116
100
AcDbEntity
  8
Layer 3
 62
   250
420
  2301728
370
     9
100
AcDbVertex
100
AcDb2dVertex
 10
-169.2286313621327
 20
-120.4707896036401
 30
0.0
  0
VERTEX
  5
118
330
116
100
AcDbEntity
  8
Layer 3
 62
   250
420
  2301728
370
     9
100
AcDbVertex
100
AcDb2dVertex
 10
-117.086192388602
 20
-93.80625839659885
 30
0.0
  0
SEQEND
  5
119
330
116
100
AcDbEntity
  8
Layer 3
 62
   250
420
  2301728
370
     9
  0
POLYLINE
  5
11A
330
1F
100
AcDbEntity
  8
Layer 3
 62
   250
420
  2301728
370
     9
100
AcDb2dPolyline
 66
     1
 10
0.0
 20
0.0
 30
0.0
  0
VERTEX
  5
11B
330
11A
100
AcDbEntity
  8
Layer 3
 62
   250
420
  2301728
370
     9
100
AcDbVertex
100
AcDb2dVertex
 10
-117.086192388602
 20
-93.80625839659885
 30
0.0
  0
VERTEX
  5
11C
330
11A
100
AcDbEntity
  8
Layer 3
 62
   250
420
  2301728
370
     9
100
AcDbVertex
100
AcDb2dVertex
 10
-63.14722220643542
 20
-93.80625743793834
 30
0.0
  0
SEQEND
  5
11D
330
11A
100
AcDbEntity
  8
Layer 3
 62
   250
420
  2301728
370
     9
  0
POLYLINE
  5
11E
330
1F
100
AcDbEntity
  8
Layer 3
 62
    18
420
    65793
370
    25
100
AcDb2dPolyline
 66
     1
 10
0.0
 20
0.0
 30
0.0
  0
VERTEX
  5
11F
330
11E
100
AcDbEntity
  8
Layer 3
 62
    18
420
    65793
370
    25
100
AcDbVertex
100
AcDb2dVertex
 10
-139.9995100447162
 20
39.95132451806214
 30
0.0
  0
VERTEX
  5
120
330
11E
100
AcDbEntity
  8
Layer 3
 62
    18
420
    65793
370
    25
100
AcDbVertex
100
AcDb2dVertex
 10
-88.62316519267952
 20
39.95132602710984
 30
0.0
  0
SEQEND
  5
121
330
11E
100
AcDbEntity
  8
Layer 3
 62
    18
420
    65793
370
    25
  0
POLYLINE
  5
122
330
1F
100
AcDbEntity
  8
Layer 3
  6
AI-Linetype-1
 62
    18
420
    65793
370
    25
100
AcDb2dPolyline
 66
     1
 10
0.0
 20
0.0
 30
0.0
  0
VERTEX
  5
123
330
122
100
AcDbEntity
  8
Layer 3
  6
AI-Linetype-1
 62
    18
420
    65793
370
    25
100
AcDbVertex
100
AcDb2dVertex
 10
-139.9995113487738
 20
4.938883697009032
 30
0.0
  0
VERTEX
  5
124
330
122
100
AcDbEntity
  8
Layer 3
  6
AI-Linetype-1
 62
    18
420
    65793
370
    25
100
AcDbVertex
100
AcDb2dVertex
 10
-88.62316668068878
 20
4.938885206056086
 30
0.0
  0
SEQEND
  5
126
330
122
100
AcDbEntity
  8
Layer 3
  6
AI-Linetype-1
 62
    18
420
    65793
370
    25
  0
POLYLINE
  5
127
330
1F
100
AcDbEntity
  8
Layer 3
 62
   250
420
  2301728
370
    35
100
AcDb2dPolyline
 66
     1
 10
0.0
 20
0.0
 30
0.0
  0
VERTEX
  5
128
330
127
100
AcDbEntity
  8
Layer 3
 62
   250
420
  2301728
370
    35
100
AcDbVertex
100
AcDb2dVertex
 10
-193.1880223981147
 20
-131.8280951719941
 30
0.0
  0
VERTEX
  5
129
330
127
100
AcDbEntity
  8
Layer 3
 62
   250
420
  2301728
370
    35
100
AcDbVertex
100
AcDb2dVertex
 10
-171.1214922032498
 20
-116.4775402269278
 30
0.0
  0
VERTEX
  5
12A
330
127
100
AcDbEntity
  8
Layer 3
 62
   250
420
  2301728
370
    35
100
AcDbVertex
100
AcDb2dVertex
 10
-167.335783059095
 20
-124.4640242267932
 30
0.0
  0
SEQEND
  5
12B
330
127
100
AcDbEntity
  8
Layer 3
 62
   250
420
  2301728
370
    35
  0
POLYLINE
  5
12C
330
1F
100
AcDbEntity
  8
Layer 3
 62
   250
420
  2301728
370
    35
100
AcDb2dPolyline
 66
     1
 10
0.0
 20
0.0
 30
0.0
  0
VERTEX
  5
12D
330
12C
100
AcDbEntity
  8
Layer 3
 62
   250
420
  2301728
370
    35
100
AcDbVertex
100
AcDb2dVertex
 10
-167.335783059095
 20
-124.4640242267932
 30
0.0
  0
VERTEX
  5
12E
330
12C
100
AcDbEntity
  8
Layer 3
 62
   250
420
  2301728
370
    35
100
AcDbVertex
100
AcDb2dVertex
 10
-193.1880223981147
 20
-131.8280951719941
 30
0.0
  0
SEQEND
  5
12F
330
12C
100
AcDbEntity
  8
Layer 3
 62
   250
420
  2301728
370
    35
  0
MTEXT
  5
130
330
1F
100
AcDbEntity
  8
Layer 3
 62
   250
420
  2301728
100
AcDbMText
 10
180.5391953758721
 20
128.2387594114353
 30
0.0
 40
19.981333328338
 41
0.0
 46
0.0
 71
     7
 72
     1
  1
\fFrutiger LT Std 55 Roman|b0|i0|c0|p34;\W1;742
 73
     1
 44
1.0
  0
MTEXT
  5
131
330
1F
100
AcDbEntity
  8
Layer 3
 62
   250
420
  2301728
100
AcDbMText
 10
-113.079596427622
 20
-87.34737618699833
 30
0.0
 40
19.981333328338
 41
0.0
 46
0.0
 71
     7
 72
     1
  1
\fFrutiger LT Std 55 Roman|b0|i0|c0|p34;\W1;R20
 73
     1
 44
1.0
  0
POLYLINE
  5
132
330
1F
100
AcDbEntity
  8
Layer 3
 62
   250
420
  2301728
370
     9
100
AcDb2dPolyline
 66
     1
 10
0.0
 20
0.0
 30
0.0
  0
VERTEX
  5
133
330
132
100
AcDbEntity
  8
Layer 3
 62
   250
420
  2301728
370
     9
100
AcDbVertex
100
AcDb2dVertex
 10
-182.2214726522526
 20
346.1343309730171
 30
0.0
  0
VERTEX
  5
134
330
132
100
AcDbEntity
  8
Layer 3
 62
   250
420
  2301728
370
     9
100
AcDbVertex
100
AcDb2dVertex
 10
-137.2514075434215
 20
305.763625342486
 30
0.0
  0
SEQEND
  5
135
330
132
100
AcDbEntity
  8
Layer 3
 62
   250
420
  2301728
370
     9
  0
POLYLINE
  5
136
330
1F
100
AcDbEntity
  8
Layer 3
 62
   250
420
  2301728
370
     9
100
AcDb2dPolyline
 66
     1
 10
0.0
 20
0.0
 30
0.0
  0
VERTEX
  5
137
330
136
100
AcDbEntity
  8
Layer 3
 62
   250
420
  2301728
370
     9
100
AcDbVertex
100
AcDb2dVertex
 10
-137.2514074731468
 20
305.7636243838259
 30
0.0
  0
VERTEX
  5
138
330
136
100
AcDbEntity
  8
Layer 3
 62
   250
420
  2301728
370
     9
100
AcDbVertex
100
AcDb2dVertex
 10
-91.55793155988357
 20
305.763625342486
 30
0.0
  0
SEQEND
  5
139
330
136
100
AcDbEntity
  8
Layer 3
 62
   250
420
  2301728
370
     9
  0
POLYLINE
  5
13A
330
1F
100
AcDbEntity
  8
Layer 3
 62
   250
420
  2301728
370
    35
100
AcDb2dPolyline
 66
     1
 10
0.0
 20
0.0
 30
0.0
  0
VERTEX
  5
13B
330
13A
100
AcDbEntity
  8
Layer 3
 62
   250
420
  2301728
370
    35
100
AcDbVertex
100
AcDb2dVertex
 10
-206.1808639220636
 20
357.4916350290863
 30
0.0
  0
VERTEX
  5
13C
330
13A
100
AcDbEntity
  8
Layer 3
 62
   250
420
  2301728
370
    35
100
AcDbVertex
100
AcDb2dVertex
 10
-184.1143337271987
 20
342.1410800840216
 30
0.0
  0
VERTEX
  5
13D
330
13A
100
AcDbEntity
  8
Layer 3
 62
   250
420
  2301728
370
    35
100
AcDbVertex
100
AcDb2dVertex
 10
-180.3286245830438
 20
350.127564083887
 30
0.0
  0
SEQEND
  5
13E
330
13A
100
AcDbEntity
  8
Layer 3
 62
   250
420
  2301728
370
    35
  0
POLYLINE
  5
13F
330
1F
100
AcDbEntity
  8
Layer 3
 62
   250
420
  2301728
370
    35
100
AcDb2dPolyline
 66
     1
 10
0.0
 20
0.0
 30
0.0
  0
VERTEX
  5
140
330
13F
100
AcDbEntity
  8
Layer 3
 62
   250
420
  2301728
370
    35
100
AcDbVertex
100
AcDb2dVertex
 10
-180.3286245830438
 20
350.127564083887
 30
0.0
  0
VERTEX
  5
141
330
13F
100
AcDbEntity
  8
Layer 3
 62
   250
420
  2301728
370
    35
100
AcDbVertex
100
AcDb2dVertex
 10
-206.1808639220636
 20
357.4916350290863
 30
0.0
  0
SEQEND
  5
142
330
13F
100
AcDbEntity
  8
Layer 3
 62
   250
420
  2301728
370
    35
  0
MTEXT
  5
143
330
1F
100
AcDbEntity
  8
Layer 3
 62
   250
420
  2301728
100
AcDbMText
 10
-123.3989439337906
 20
309.0475227431049
 30
0.0
 40
19.981333328338
 41
0.0
 46
0.0
 71
     7
 72
     1
  1
\fFrutiger LT Std 55 Roman|b0|i0|c0|p34;\W1;R5
 73
     1
 44
1.0
  0
POLYLINE
  5
144
330
1F
100
AcDbEntity
  8
Layer 3
 62
   250
420
  2301728
370
     9
100
AcDb2dPolyline
 66
     1
 10
0.0
 20
0.0
 30
0.0
  0
VERTEX
  5
145
330
144
100
AcDbEntity
  8
Layer 3
 62
   250
420
  2301728
370
     9
100
AcDbVertex
100
AcDb2dVertex
 10
516.1138876461301
 20
-95.51333444426463
 30
0.0
  0
VERTEX
  5
146
330
144
100
AcDbEntity
  8
Layer 3
 62
   250
420
  2301728
370
     9
100
AcDbVertex
100
AcDb2dVertex
 10
516.11388860479
 20
-41.5743642620977
 30
0.0
  0
SEQEND
  5
147
330
144
100
AcDbEntity
  8
Layer 3
 62
   250
420
  2301728
370
     9
  0
POLYLINE
  5
148
330
1F
100
AcDbEntity
  8
Layer 3
 62
   250
420
  2301728
370
     9
100
AcDb2dPolyline
 66
     1
 10
0.0
 20
0.0
 30
0.0
  0
VERTEX
  5
149
330
148
100
AcDbEntity
  8
Layer 3
 62
   250
420
  2301728
370
     9
100
AcDbVertex
100
AcDb2dVertex
 10
516.1138876461301
 20
-95.51333444426463
 30
0.0
  0
VERTEX
  5
14A
330
148
100
AcDbEntity
  8
Layer 3
 62
   250
420
  2301728
370
     9
100
AcDbVertex
100
AcDb2dVertex
 10
528.467471451058
 20
-102.3390350285511
 30
0.0
  0
SEQEND
  5
14B
330
148
100
AcDbEntity
  8
Layer 3
 62
   250
420
  2301728
370
     9
  0
POLYLINE
  5
14C
330
1F
100
AcDbEntity
  8
Layer 3
 62
   250
420
  2301728
370
    35
100
AcDb2dPolyline
 66
     1
 10
0.0
 20
0.0
 30
0.0
  0
VERTEX
  5
14D
330
14C
100
AcDbEntity
  8
Layer 3
 62
   250
420
  2301728
370
    35
100
AcDbVertex
100
AcDb2dVertex
 10
552.2545445219157
 20
-114.0598636456987
 30
0.0
  0
VERTEX
  5
14E
330
14C
100
AcDbEntity
  8
Layer 3
 62
   250
420
  2301728
370
    35
100
AcDbVertex
100
AcDb2dVertex
 10
530.1880143277413
 20
-98.70930869964168
 30
0.0
  0
VERTEX
  5
14F
330
14C
100
AcDbEntity
  8
Layer 3
 62
   250
420
  2301728
370
    35
100
AcDbVertex
100
AcDb2dVertex
 10
526.4023051832296
 20
-106.695792699337
 30
0.0
  0
SEQEND
  5
150
330
14C
100
AcDbEntity
  8
Layer 3
 62
   250
420
  2301728
370
    35
  0
POLYLINE
  5
151
330
1F
100
AcDbEntity
  8
Layer 3
 62
   250
420
  2301728
370
    35
100
AcDb2dPolyline
 66
     1
 10
0.0
 20
0.0
 30
0.0
  0
VERTEX
  5
152
330
151
100
AcDbEntity
  8
Layer 3
 62
   250
420
  2301728
370
    35
100
AcDbVertex
100
AcDb2dVertex
 10
526.4023051832296
 20
-106.695792699337
 30
0.0
  0
VERTEX
  5
153
330
151
100
AcDbEntity
  8
Layer 3
 62
   250
420
  2301728
370
    35
100
AcDbVertex
100
AcDb2dVertex
 10
552.2545445219157
 20
-114.0598636456987
 30
0.0
  0
SEQEND
  5
154
330
151
100
AcDbEntity
  8
Layer 3
 62
   250
420
  2301728
370
    35
  0
MTEXT
  5
155
330
1F
100
AcDbEntity
  8
Layer 3
 62
   250
420
  2301728
100
AcDbMText
 10
518.2305789764554
 20
-59.98188933356444
 30
0.0
 40
14.98019563478441
 41
0.0
 46
0.0
 71
     7
 72
     1
  1
\fFrutiger LT Std 55 Roman|b0|i0|c0|p34;\W1;R19
 73
     1
 44
1.0
  0
POLYLINE
  5
156
330
1F
100
AcDbEntity
  8
Layer 3
 62
   250
420
  2301728
370
     9
100
AcDb2dPolyline
 66
     1
 10
0.0
 20
0.0
 30
0.0
  0
VERTEX
  5
157
330
156
100
AcDbEntity
  8
Layer 3
 62
   250
420
  2301728
370
     9
100
AcDbVertex
100
AcDb2dVertex
 10
461.4770699755393
 20
234.8736584810819
 30
0.0
  0
VERTEX
  5
158
330
156
100
AcDbEntity
  8
Layer 3
 62
   250
420
  2301728
370
     9
100
AcDbVertex
100
AcDb2dVertex
 10
461.4770699755393
 20
90.58507923152172
 30
0.0
  0
SEQEND
  5
159
330
156
100
AcDbEntity
  8
Layer 3
 62
   250
420
  2301728
370
     9
  0
POLYLINE
  5
15A
330
1F
100
AcDbEntity
  8
Layer 3
 62
   250
420
  2301728
370
     9
100
AcDb2dPolyline
 66
     1
 10
0.0
 20
0.0
 30
0.0
  0
VERTEX
  5
15B
330
15A
100
AcDbEntity
  8
Layer 3
 62
   250
420
  2301728
370
     9
100
AcDbVertex
100
AcDb2dVertex
 10
461.4770699755393
 20
-70.51331399566398
 30
0.0
  0
VERTEX
  5
15C
330
15A
100
AcDbEntity
  8
Layer 3
 62
   250
420
  2301728
370
     9
100
AcDbVertex
100
AcDb2dVertex
 10
461.4770699755393
 20
49.30438481280018
 30
0.0
  0
SEQEND
  5
15D
330
15A
100
AcDbEntity
  8
Layer 3
 62
   250
420
  2301728
370
     9
  0
POLYLINE
  5
15E
330
1F
100
AcDbEntity
  8
Layer 3
 62
   250
420
  2301728
370
    35
100
AcDb2dPolyline
 66
     1
 10
0.0
 20
0.0
 30
0.0
  0
VERTEX
  5
15F
330
15E
100
AcDbEntity
  8
Layer 3
 62
   250
420
  2301728
370
    35
100
AcDbVertex
100
AcDb2dVertex
 10
453.1437180331787
 20
234.7871990535318
 30
0.0
  0
VERTEX
  5
160
330
15E
100
AcDbEntity
  8
Layer 3
 62
   250
420
  2301728
370
    35
100
AcDbVertex
100
AcDb2dVertex
 10
469.8103866401231
 20
234.7871990535318
 30
0.0
  0
VERTEX
  5
161
330
15E
100
AcDbEntity
  8
Layer 3
 62
   250
420
  2301728
370
    35
100
AcDbVertex
100
AcDb2dVertex
 10
461.4774227533171
 20
284.7872324854584
 30
0.0
  0
VERTEX
  5
162
330
15E
100
AcDbEntity
  8
Layer 3
 62
   250
420
  2301728
370
    35
100
AcDbVertex
100
AcDb2dVertex
 10
453.1437180331787
 20
234.7871990535318
 30
0.0
  0
SEQEND
  5
163
330
15E
100
AcDbEntity
  8
Layer 3
 62
   250
420
  2301728
370
    35
  0
POLYLINE
  5
164
330
1F
100
AcDbEntity
  8
Layer 3
 62
   250
420
  2301728
370
    35
100
AcDb2dPolyline
 66
     1
 10
0.0
 20
0.0
 30
0.0
  0
VERTEX
  5
165
330
164
100
AcDbEntity
  8
Layer 3
 62
   250
420
  2301728
370
    35
100
AcDbVertex
100
AcDb2dVertex
 10
453.1437180331787
 20
-70.51331399566398
 30
0.0
  0
VERTEX
  5
166
330
164
100
AcDbEntity
  8
Layer 3
 62
   250
420
  2301728
370
    35
100
AcDbVertex
100
AcDb2dVertex
 10
469.8103866401231
 20
-70.51331399566398
 30
0.0
  0
VERTEX
  5
167
330
164
100
AcDbEntity
  8
Layer 3
 62
   250
420
  2301728
370
    35
100
AcDbVertex
100
AcDb2dVertex
 10
461.4774227533171
 20
-120.5133550942754
 30
0.0
  0
VERTEX
  5
168
330
164
100
AcDbEntity
  8
Layer 3
 62
   250
420
  2301728
370
    35
100
AcDbVertex
100
AcDb2dVertex
 10
453.1437180331787
 20
-70.51331399566398
 30
0.0
  0
SEQEND
  5
169
330
164
100
AcDbEntity
  8
Layer 3
 62
   250
420
  2301728
370
    35
  0
MTEXT
  5
16A
330
1F
100
AcDbEntity
  8
Layer 3
 62
   250
420
  2301728
100
AcDbMText
 10
439.2392098918178
 20
60.26489383462454
 30
0.0
 40
19.981333328338
 41
0.0
 46
0.0
 71
     7
 72
     1
  1
\fFrutiger LT Std 55 Roman|b0|i0|c0|p34;\W1;407
 73
     1
 44
1.0
  0
POLYLINE
  5
16B
330
1F
100
AcDbEntity
  8
Layer 3
 62
   250
420
  2301728
370
     9
100
AcDb2dPolyline
 66
     1
 10
0.0
 20
0.0
 30
0.0
  0
VERTEX
  5
16C
330
16B
100
AcDbEntity
  8
Layer 3
 62
   250
420
  2301728
370
     9
100
AcDbVertex
100
AcDb2dVertex
 10
409.0444230888937
 20
299.0940273360822
 30
0.0
  0
VERTEX
  5
16D
330
16B
100
AcDbEntity
  8
Layer 3
 62
   250
420
  2301728
370
     9
100
AcDbVertex
100
AcDb2dVertex
 10
409.0444230888937
 20
90.58507923152172
 30
0.0
  0
SEQEND
  5
16E
330
16B
100
AcDbEntity
  8
Layer 3
 62
   250
420
  2301728
370
     9
  0
POLYLINE
  5
16F
330
1F
100
AcDbEntity
  8
Layer 3
 62
   250
420
  2301728
370
     9
100
AcDb2dPolyline
 66
     1
 10
0.0
 20
0.0
 30
0.0
  0
VERTEX
  5
170
330
16F
100
AcDbEntity
  8
Layer 3
 62
   250
420
  2301728
370
     9
100
AcDbVertex
100
AcDb2dVertex
 10
409.0444230888937
 20
-89.49417220779213
 30
0.0
  0
VERTEX
  5
171
330
16F
100
AcDbEntity
  8
Layer 3
 62
   250
420
  2301728
370
     9
100
AcDbVertex
100
AcDb2dVertex
 10
409.0444230888937
 20
49.30438481280018
 30
0.0
  0
SEQEND
  5
172
330
16F
100
AcDbEntity
  8
Layer 3
 62
   250
420
  2301728
370
     9
  0
POLYLINE
  5
173
330
1F
100
AcDbEntity
  8
Layer 3
 62
   250
420
  2301728
370
    35
100
AcDb2dPolyline
 66
     1
 10
0.0
 20
0.0
 30
0.0
  0
VERTEX
  5
174
330
173
100
AcDbEntity
  8
Layer 3
 62
   250
420
  2301728
370
    35
100
AcDbVertex
100
AcDb2dVertex
 10
400.7110711465324
 20
299.0075685036226
 30
0.0
  0
VERTEX
  5
175
330
173
100
AcDbEntity
  8
Layer 3
 62
   250
420
  2301728
370
    35
100
AcDbVertex
100
AcDb2dVertex
 10
417.3777397534768
 20
299.0075685036226
 30
0.0
  0
VERTEX
  5
176
330
173
100
AcDbEntity
  8
Layer 3
 62
   250
420
  2301728
370
    35
100
AcDbVertex
100
AcDb2dVertex
 10
409.0447758666714
 20
349.0076019355491
 30
0.0
  0
VERTEX
  5
177
330
173
100
AcDbEntity
  8
Layer 3
 62
   250
420
  2301728
370
    35
100
AcDbVertex
100
AcDb2dVertex
 10
400.7110711465324
 20
299.0075685036226
 30
0.0
  0
SEQEND
  5
178
330
173
100
AcDbEntity
  8
Layer 3
 62
   250
420
  2301728
370
    35
  0
POLYLINE
  5
179
330
1F
100
AcDbEntity
  8
Layer 3
 62
   250
420
  2301728
370
    35
100
AcDb2dPolyline
 66
     1
 10
0.0
 20
0.0
 30
0.0
  0
VERTEX
  5
17A
330
179
100
AcDbEntity
  8
Layer 3
 62
   250
420
  2301728
370
    35
100
AcDbVertex
100
AcDb2dVertex
 10
400.7110711465324
 20
-89.4941718665308
 30
0.0
  0
VERTEX
  5
17B
330
179
100
AcDbEntity
  8
Layer 3
 62
   250
420
  2301728
370
    35
100
AcDbVertex
100
AcDb2dVertex
 10
417.3777397534768
 20
-89.4941718665308
 30
0.0
  0
VERTEX
  5
17C
330
179
100
AcDbEntity
  8
Layer 3
 62
   250
420
  2301728
370
    35
100
AcDbVertex
100
AcDb2dVertex
 10
409.0447758666714
 20
-139.4942129651422
 30
0.0
  0
VERTEX
  5
17D
330
179
100
AcDbEntity
  8
Layer 3
 62
   250
420
  2301728
370
    35
100
AcDbVertex
100
AcDb2dVertex
 10
400.7110711465324
 20
-89.4941718665308
 30
0.0
  0
SEQEND
  5
17E
330
179
100
AcDbEntity
  8
Layer 3
 62
   250
420
  2301728
370
    35
  0
MTEXT
  5
17F
330
1F
100
AcDbEntity
  8
Layer 3
 62
   250
420
  2301728
100
AcDbMText
 10
387.3842355395472
 20
60.26489383462454
 30
0.0
 40
19.981333328338
 41
0.0
 46
0.0
 71
     7
 72
     1
  1
\fFrutiger LT Std 55 Roman|b0|i0|c0|p34;\W1;490
 73
     1
 44
1.0
  0
INSERT
  5
181
330
1F
100
AcDbEntity
  8
Layer 3
100
AcDbBlockReference
  2
block 6
 10
0.0
 20
0.0
 30
0.0
  0
INSERT
  5
192
330
1F
100
AcDbEntity
  8
Layer 2
100
AcDbBlockReference
  2
block 7
 10
0.0
 20
0.0
 30
0.0
  0
INSERT
  5
403
330
1F
100
AcDbEntity
  8
Layer 2
100
AcDbBlockReference
  2
block 8
 10
0.0
 20
0.0
 30
0.0
  0
ENDSEC
  0
SECTION
  2
OBJECTS
  0
DICTIONARY
  5
C
330
0
100
AcDbDictionary
281
     1
  3
ACAD_GROUP
350
D
  3
ACAD_LAYOUT
350
1A
  3
ACAD_MATERIAL
350
3B
  3
ACAD_MLEADERSTYLE
350
40A
  3
ACAD_MLINESTYLE
350
17
  3
ACAD_PLOTSETTINGS
350
19
  3
ACAD_PLOTSTYLENAME
350
E
  3
ACAD_TABLESTYLE
350
409
  3
ACAD_VISUALSTYLE
350
2A
  0
SUN
  5
3F
330
29
100
AcDbSun
 90
        1
290
     0
 63
     7
421
 16777215
 40
1.0
291
     1
 91
  2455826
 92
 54000000
292
     0
 70
     2
 71
   256
280
     1
  0
DICTIONARY
  5
D
102
{ACAD_REACTORS
330
C
102
}
330
C
100
AcDbDictionary
281
     1
  0
DICTIONARY
  5
1A
102
{ACAD_REACTORS
330
C
102
}
330
C
100
AcDbDictionary
281
     1
  3
Layout1
350
1E
  3
Layout2
350
26
  3
Model
350
22
  0
DICTIONARY
  5
3B
102
{ACAD_REACTORS
330
C
102
}
330
C
100
AcDbDictionary
281
     1
  3
ByBlock
350
3D
  3
ByLayer
350
3C
  3
Global
350
3E
  0
DICTIONARY
  5
40A
102
{ACAD_REACTORS
330
C
102
}
330
C
100
AcDbDictionary
281
     1
  0
DICTIONARY
  5
17
102
{ACAD_REACTORS
330
C
102
}
330
C
100
AcDbDictionary
281
     1
  3
Standard
350
18
  0
DICTIONARY
  5
19
102
{ACAD_REACTORS
330
C
102
}
330
C
100
AcDbDictionary
281
     1
  0
ACDBDICTIONARYWDFLT
  5
E
102
{ACAD_REACTORS
330
C
102
}
330
C
100
AcDbDictionary
281
     1
  3
Normal
350
F
100
AcDbDictionaryWithDefault
340
F
  0
DICTIONARY
  5
409
102
{ACAD_REACTORS
330
C
102
}
330
C
100
AcDbDictionary
281
     1
  0
DICTIONARY
  5
2A
102
{ACAD_REACTORS
330
C
102
}
330
C
100
AcDbDictionary
281
     1
  3
2dWireframe
350
2F
  3
3D Hidden
350
31
  3
3dWireframe
350
30
  3
Basic
350
32
  3
Brighten
350
36
  3
ColorChange
350
3A
  3
Conceptual
350
34
  3
Dim
350
35
  3
Facepattern
350
39
  3
Flat
350
2B
  3
FlatWithEdges
350
2C
  3
Gouraud
350
2D
  3
GouraudWithEdges
350
2E
  3
Linepattern
350
38
  3
Realistic
350
33
  3
Thicken
350
37
  0
LAYOUT
  5
1E
102
{ACAD_REACTORS
330
1A
102
}
330
1A
100
AcDbPlotSettings
  1

  2
none_device
  4

  6

 40
0.0
 41
0.0
 42
0.0
 43
0.0
 44
0.0
 45
0.0
 46
0.0
 47
0.0
 48
0.0
 49
0.0
140
0.0
141
0.0
142
1.0
143
1.0
 70
   688
 72
     0
 73
     0
 74
     5
  7

 75
    16
 76
     0
 77
     2
 78
   300
147
1.0
148
0.0
149
0.0
100
AcDbLayout
  1
Layout1
 70
     1
 71
     1
 10
0.0
 20
0.0
 11
12.0
 21
9.0
 12
0.0
 22
0.0
 32
0.0
 14
1.000000000000000E+20
 24
1.000000000000000E+20
 34
1.000000000000000E+20
 15
-1.000000000000000E+20
 25
-1.000000000000000E+20
 35
-1.000000000000000E+20
146
0.0
 13
0.0
 23
0.0
 33
0.0
 16
1.0
 26
0.0
 36
0.0
 17
0.0
 27
1.0
 37
0.0
 76
     0
330
1B
  0
LAYOUT
  5
26
102
{ACAD_REACTORS
330
1A
102
}
330
1A
100
AcDbPlotSettings
  1

  2
none_device
  4

  6

 40
0.0
 41
0.0
 42
0.0
 43
0.0
 44
0.0
 45
0.0
 46
0.0
 47
0.0
 48
0.0
 49
0.0
140
0.0
141
0.0
142
1.0
143
1.0
 70
   688
 72
     0
 73
     0
 74
     5
  7

 75
    16
 76
     0
 77
     2
 78
   300
147
1.0
148
0.0
149
0.0
100
AcDbLayout
  1
Layout2
 70
     1
 71
     2
 10
0.0
 20
0.0
 11
0.0
 21
0.0
 12
0.0
 22
0.0
 32
0.0
 14
0.0
 24
0.0
 34
0.0
 15
0.0
 25
0.0
 35
0.0
146
0.0
 13
0.0
 23
0.0
 33
0.0
 16
1.0
 26
0.0
 36
0.0
 17
0.0
 27
1.0
 37
0.0
 76
     0
330
23
  0
LAYOUT
  5
22
102
{ACAD_REACTORS
330
1A
102
}
330
1A
100
AcDbPlotSettings
  1

  2
none_device
  4

  6

 40
0.0
 41
0.0
 42
0.0
 43
0.0
 44
0.0
 45
0.0
 46
0.0
 47
0.0
 48
0.0
 49
0.0
140
0.0
141
0.0
142
1.0
143
1.0
 70
  1712
 72
     0
 73
     0
 74
     0
  7

 75
     0
 76
     0
 77
     2
 78
   300
147
1.0
148
0.0
149
0.0
100
AcDbLayout
  1
Model
 70
     1
 71
     0
 10
0.0
 20
0.0
 11
12.0
 21
9.0
 12
0.0
 22
0.0
 32
0.0
 14
1.000000000000000E+20
 24
1.000000000000000E+20
 34
1.000000000000000E+20
 15
-1.000000000000000E+20
 25
-1.000000000000000E+20
 35
-1.000000000000000E+20
146
0.0
 13
0.0
 23
0.0
 33
0.0
 16
1.0
 26
0.0
 36
0.0
 17
0.0
 27
1.0
 37
0.0
 76
     0
330
1F
331
29
  0
MATERIAL
  5
3D
102
{ACAD_REACTORS
330
3B
102
}
330
3B
100
AcDbMaterial
  1
ByBlock
 72
     1
 94
      127
  0
MATERIAL
  5
3C
102
{ACAD_REACTORS
330
3B
102
}
330
3B
100
AcDbMaterial
  1
ByLayer
 72
     1
 94
      127
  0
MATERIAL
  5
3E
102
{ACAD_REACTORS
330
3B
102
}
330
3B
100
AcDbMaterial
  1
Global
 72
     1
 94
      127
  0
MLINESTYLE
  5
18
102
{ACAD_REACTORS
330
17
102
}
330
17
100
AcDbMlineStyle
  2
Standard
 70
     0
  3

 62
   256
 51
90.0
 52
90.0
 71
     2
 49
0.5
 62
   256
  6
BYLAYER
 49
-0.5
 62
   256
  6
BYLAYER
  0
ACDBPLACEHOLDER
  5
F
102
{ACAD_REACTORS
330
E
102
}
330
E
  0
VISUALSTYLE
  5
2F
102
{ACAD_REACTORS
330
2A
102
}
330
2A
100
AcDbVisualStyle
  2
2dWireframe
 70
     4
177
     2
291
     0
 71
     0
176
     1
 72
     2
176
     1
 73
     0
176
     1
 90
        0
176
     1
 40
-0.6
176
     1
 41
-30.0
176
     1
 62
     5
 63
     7
421
 16777215
176
     1
 74
     1
176
     1
 91
        4
176
     1
 64
     7
176
     1
 65
   257
176
     1
 75
     1
176
     1
175
     1
176
     1
 42
1.0
176
     1
 92
        0
176
     1
 66
   257
176
     1
 43
1.0
176
     1
 76
     1
176
     1
 77
     6
176
     1
 78
     2
176
     1
 67
     7
176
     1
 79
     5
176
     1
170
     0
176
     1
171
     0
176
     1
290
     0
176
     1
 93
        1
176
     1
 44
0.0
176
     1
173
     0
176
     1
  0
VISUALSTYLE
  5
31
102
{ACAD_REACTORS
330
2A
102
}
330
2A
100
AcDbVisualStyle
  2
3D Hidden
 70
     6
177
     2
291
     0
 71
     1
176
     1
 72
     2
176
     1
 73
     2
176
     1
 90
        0
176
     1
 40
-0.6
176
     1
 41
-30.0
176
     1
 62
     5
 63
     7
421
 16777215
176
     1
 74
     2
176
     1
 91
        2
176
     1
 64
     7
176
     1
 65
   257
176
     1
 75
     2
176
     1
175
     1
176
     1
 42
40.0
176
     1
 92
        0
176
     1
 66
   257
176
     1
 43
1.0
176
     1
 76
     1
176
     1
 77
     6
176
     1
 78
     2
176
     1
 67
     7
176
     1
 79
     3
176
     1
170
     0
176
     1
171
     0
176
     1
290
     0
176
     1
 93
        1
176
     1
 44
0.0
176
     1
173
     0
176
     1
  0
VISUALSTYLE
  5
30
102
{ACAD_REACTORS
330
2A
102
}
330
2A
100
AcDbVisualStyle
  2
3dWireframe
 70
     5
177
     2
291
     0
 71
     0
176
     1
 72
     2
176
     1
 73
     0
176
     1
 90
        0
176
     1
 40
-0.6
176
     1
 41
-30.0
176
     1
 62
     5
 63
     7
421
 16777215
176
     1
 74
     1
176
     1
 91
        4
176
     1
 64
     7
176
     1
 65
   257
176
     1
 75
     1
176
     1
175
     1
176
     1
 42
1.0
176
     1
 92
        0
176
     1
 66
   257
176
     1
 43
1.0
176
     1
 76
     1
176
     1
 77
     6
176
     1
 78
     2
176
     1
 67
     7
176
     1
 79
     5
176
     1
170
     0
176
     1
171
     0
176
     1
290
     0
176
     1
 93
        1
176
     1
 44
0.0
176
     1
173
     0
176
     1
  0
VISUALSTYLE
  5
32
102
{ACAD_REACTORS
330
2A
102
}
330
2A
100
AcDbVisualStyle
  2
Basic
 70
     7
177
     2
291
     1
 71
     1
176
     1
 72
     0
176
     1
 73
     1
176
     1
 90
        0
176
     1
 40
-0.6
176
     1
 41
-30.0
176
     1
 62
     5
 63
     7
421
 16777215
176
     1
 74
     0
176
     1
 91
        4
176
     1
 64
     7
176
     1
 65
   257
176
     1
 75
     1
176
     1
175
     1
176
     1
 42
1.0
176
     1
 92
        8
176
     1
 66
     7
176
     1
 43
1.0
176
     1
 76
     1
176
     1
 77
     6
176
     1
 78
     2
176
     1
 67
     7
176
     1
 79
     5
176
     1
170
     0
176
     1
171
     0
176
     1
290
     0
176
     1
 93
        1
176
     1
 44
0.0
176
     1
173
     0
176
     1
  0
VISUALSTYLE
  5
36
102
{ACAD_REACTORS
330
2A
102
}
330
2A
100
AcDbVisualStyle
  2
Brighten
 70
    12
177
     2
291
     1
 71
     2
176
     1
 72
     2
176
     1
 73
     0
176
     1
 90
        0
176
     1
 40
-0.6
176
     1
 41
-30.0
176
     1
 62
     5
 63
     7
421
 16777215
176
     1
 74
     1
176
     1
 91
        4
176
     1
 64
     7
176
     1
 65
   257
176
     1
 75
     1
176
     1
175
     1
176
     1
 42
1.0
176
     1
 92
        8
176
     1
 66
     7
176
     1
 43
1.0
176
     1
 76
     1
176
     1
 77
     6
176
     1
 78
     2
176
     1
 67
     7
176
     1
 79
     5
176
     1
170
     0
176
     1
171
     0
176
     1
290
     0
176
     1
 93
        1
176
     1
 44
50.0
176
     1
173
     0
176
     1
  0
VISUALSTYLE
  5
3A
102
{ACAD_REACTORS
330
2A
102
}
330
2A
100
AcDbVisualStyle
  2
ColorChange
 70
    16
177
     2
291
     1
 71
     2
176
     1
 72
     2
176
     1
 73
     3
176
     1
 90
        0
176
     1
 40
-0.6
176
     1
 41
-30.0
176
     1
 62
     5
 63
     8
421
  8421504
176
     1
 74
     1
176
     1
 91
        4
176
     1
 64
     7
176
     1
 65
   257
176
     1
 75
     1
176
     1
175
     1
176
     1
 42
1.0
176
     1
 92
        8
176
     1
 66
     8
424
  8421504
176
     1
 43
1.0
176
     1
 76
     1
176
     1
 77
     6
176
     1
 78
     2
176
     1
 67
     7
176
     1
 79
     5
176
     1
170
     0
176
     1
171
     0
176
     1
290
     0
176
     1
 93
        1
176
     1
 44
0.0
176
     1
173
     0
176
     1
  0
VISUALSTYLE
  5
34
102
{ACAD_REACTORS
330
2A
102
}
330
2A
100
AcDbVisualStyle
  2
Conceptual
 70
     9
177
     2
291
     0
 71
     3
176
     1
 72
     2
176
     1
 73
     0
176
     1
 90
        0
176
     1
 40
-0.6
176
     1
 41
-30.0
176
     1
 62
     5
 63
     7
421
 16777215
176
     1
 74
     2
176
     1
 91
        2
176
     1
 64
     7
176
     1
 65
   257
176
     1
 75
     1
176
     1
175
     1
176
     1
 42
40.0
176
     1
 92
        8
176
     1
 66
     7
176
     1
 43
1.0
176
     1
 76
     1
176
     1
 77
     6
176
     1
 78
     2
176
     1
 67
     7
176
     1
 79
     3
176
     1
170
     0
176
     1
171
     0
176
     1
290
     0
176
     1
 93
        1
176
     1
 44
0.0
176
     1
173
     0
176
     1
  0
VISUALSTYLE
  5
35
102
{ACAD_REACTORS
330
2A
102
}
330
2A
100
AcDbVisualStyle
  2
Dim
 70
    11
177
     2
291
     1
 71
     2
176
     1
 72
     2
176
     1
 73
     0
176
     1
 90
        0
176
     1
 40
-0.6
176
     1
 41
-30.0
176
     1
 62
     5
 63
     7
421
 16777215
176
     1
 74
     1
176
     1
 91
        4
176
     1
 64
     7
176
     1
 65
   257
176
     1
 75
     1
176
     1
175
     1
176
     1
 42
1.0
176
     1
 92
        8
176
     1
 66
     7
176
     1
 43
1.0
176
     1
 76
     1
176
     1
 77
     6
176
     1
 78
     2
176
     1
 67
     7
176
     1
 79
     5
176
     1
170
     0
176
     1
171
     0
176
     1
290
     0
176
     1
 93
        1
176
     1
 44
-50.0
176
     1
173
     0
176
     1
  0
VISUALSTYLE
  5
39
102
{ACAD_REACTORS
330
2A
102
}
330
2A
100
AcDbVisualStyle
  2
Facepattern
 70
    15
177
     2
291
     1
 71
     2
176
     1
 72
     2
176
     1
 73
     0
176
     1
 90
        0
176
     1
 40
-0.6
176
     1
 41
-30.0
176
     1
 62
     5
 63
     7
421
 16777215
176
     1
 74
     1
176
     1
 91
        4
176
     1
 64
     7
176
     1
 65
   257
176
     1
 75
     1
176
     1
175
     1
176
     1
 42
1.0
176
     1
 92
        8
176
     1
 66
     7
176
     1
 43
1.0
176
     1
 76
     1
176
     1
 77
     6
176
     1
 78
     2
176
     1
 67
     7
176
     1
 79
     5
176
     1
170
     0
176
     1
171
     0
176
     1
290
     0
176
     1
 93
        1
176
     1
 44
0.0
176
     1
173
     0
176
     1
  0
VISUALSTYLE
  5
2B
102
{ACAD_REACTORS
330
2A
102
}
330
2A
100
AcDbVisualStyle
  2
Flat
 70
     0
177
     2
291
     1
 71
     2
176
     1
 72
     1
176
     1
 73
     1
176
     1
 90
        2
176
     1
 40
-0.6
176
     1
 41
30.0
176
     1
 62
     5
 63
     7
421
 16777215
176
     1
 74
     0
176
     1
 91
        4
176
     1
 64
     7
176
     1
 65
   257
176
     1
 75
     1
176
     1
175
     1
176
     1
 42
1.0
176
     1
 92
        8
176
     1
 66
     7
176
     1
 43
1.0
176
     1
 76
     1
176
     1
 77
     6
176
     1
 78
     2
176
     1
 67
     7
176
     1
 79
     5
176
     1
170
     0
176
     1
171
     0
176
     1
290
     0
176
     1
 93
       13
176
     1
 44
0.0
176
     1
173
     0
176
     1
  0
VISUALSTYLE
  5
2C
102
{ACAD_REACTORS
330
2A
102
}
330
2A
100
AcDbVisualStyle
  2
FlatWithEdges
 70
     1
177
     2
291
     1
 71
     2
176
     1
 72
     1
176
     1
 73
     1
176
     1
 90
        2
176
     1
 40
-0.6
176
     1
 41
30.0
176
     1
 62
     5
 63
     7
421
 16777215
176
     1
 74
     1
176
     1
 91
        4
176
     1
 64
     7
176
     1
 65
   257
176
     1
 75
     1
176
     1
175
     1
176
     1
 42
1.0
176
     1
 92
        0
176
     1
 66
   257
176
     1
 43
1.0
176
     1
 76
     1
176
     1
 77
     6
176
     1
 78
     2
176
     1
 67
     7
176
     1
 79
     5
176
     1
170
     0
176
     1
171
     0
176
     1
290
     0
176
     1
 93
       13
176
     1
 44
0.0
176
     1
173
     0
176
     1
  0
VISUALSTYLE
  5
2D
102
{ACAD_REACTORS
330
2A
102
}
330
2A
100
AcDbVisualStyle
  2
Gouraud
 70
     2
177
     2
291
     1
 71
     2
176
     1
 72
     2
176
     1
 73
     1
176
     1
 90
        2
176
     1
 40
-0.6
176
     1
 41
30.0
176
     1
 62
     5
 63
     7
421
 16777215
176
     1
 74
     0
176
     1
 91
        4
176
     1
 64
     7
176
     1
 65
   257
176
     1
 75
     1
176
     1
175
     1
176
     1
 42
1.0
176
     1
 92
        0
176
     1
 66
     7
176
     1
 43
1.0
176
     1
 76
     1
176
     1
 77
     6
176
     1
 78
     2
176
     1
 67
     7
176
     1
 79
     5
176
     1
170
     0
176
     1
171
     0
176
     1
290
     0
176
     1
 93
       13
176
     1
 44
0.0
176
     1
173
     0
176
     1
  0
VISUALSTYLE
  5
2E
102
{ACAD_REACTORS
330
2A
102
}
330
2A
100
AcDbVisualStyle
  2
GouraudWithEdges
 70
     3
177
     2
291
     1
 71
     2
176
     1
 72
     2
176
     1
 73
     1
176
     1
 90
        2
176
     1
 40
-0.6
176
     1
 41
30.0
176
     1
 62
     5
 63
     7
421
 16777215
176
     1
 74
     1
176
     1
 91
        4
176
     1
 64
     7
176
     1
 65
   257
176
     1
 75
     1
176
     1
175
     1
176
     1
 42
1.0
176
     1
 92
        0
176
     1
 66
   257
176
     1
 43
1.0
176
     1
 76
     1
176
     1
 77
     6
176
     1
 78
     2
176
     1
 67
     7
176
     1
 79
     5
176
     1
170
     0
176
     1
171
     0
176
     1
290
     0
176
     1
 93
       13
176
     1
 44
0.0
176
     1
173
     0
176
     1
  0
VISUALSTYLE
  5
38
102
{ACAD_REACTORS
330
2A
102
}
330
2A
100
AcDbVisualStyle
  2
Linepattern
 70
    14
177
     2
291
     1
 71
     2
176
     1
 72
     2
176
     1
 73
     0
176
     1
 90
        0
176
     1
 40
-0.6
176
     1
 41
-30.0
176
     1
 62
     5
 63
     7
421
 16777215
176
     1
 74
     1
176
     1
 91
        4
176
     1
 64
     7
176
     1
 65
   257
176
     1
 75
     7
176
     1
175
     7
176
     1
 42
1.0
176
     1
 92
        8
176
     1
 66
     7
176
     1
 43
1.0
176
     1
 76
     1
176
     1
 77
     6
176
     1
 78
     2
176
     1
 67
     7
176
     1
 79
     5
176
     1
170
     0
176
     1
171
     0
176
     1
290
     0
176
     1
 93
        1
176
     1
 44
0.0
176
     1
173
     0
176
     1
  0
VISUALSTYLE
  5
33
102
{ACAD_REACTORS
330
2A
102
}
330
2A
100
AcDbVisualStyle
  2
Realistic
 70
     8
177
     2
291
     0
 71
     2
176
     1
 72
     2
176
     1
 73
     0
176
     1
 90
        0
176
     1
 40
-0.6
176
     1
 41
-30.0
176
     1
 62
     5
 63
     7
421
 16777215
176
     1
 74
     1
176
     1
 91
        0
176
     1
 64
     7
176
     1
 65
   257
176
     1
 75
     1
176
     1
175
     1
176
     1
 42
1.0
176
     1
 92
        8
176
     1
 66
     8
424
  7895160
176
     1
 43
1.0
176
     1
 76
     1
176
     1
 77
     6
176
     1
 78
     2
176
     1
 67
     7
176
     1
 79
     5
176
     1
170
     0
176
     1
171
     0
176
     1
290
     0
176
     1
 93
       13
176
     1
 44
0.0
176
     1
173
     0
176
     1
  0
VISUALSTYLE
  5
37
102
{ACAD_REACTORS
330
2A
102
}
330
2A
100
AcDbVisualStyle
  2
Thicken
 70
    13
177
     2
291
     1
 71
     2
176
     1
 72
     2
176
     1
 73
     0
176
     1
 90
        0
176
     1
 40
-0.6
176
     1
 41
-30.0
176
     1
 62
     5
 63
     7
421
 16777215
176
     1
 74
     1
176
     1
 91
        4
176
     1
 64
     7
176
     1
 65
   257
176
     1
 75
     1
176
     1
175
     1
176
     1
 42
1.0
176
     1
 92
       12
176
     1
 66
     7
176
     1
 43
1.0
176
     1
 76
     1
176
     1
 77
     6
176
     1
 78
     2
176
     1
 67
     7
176
     1
 79
     5
176
     1
170
     0
176
     1
171
     0
176
     1
290
     0
176
     1
 93
        1
176
     1
 44
0.0
176
     1
173
     0
176
     1
  0
ENDSEC
  0
EOF
