  0
SECTION
  2
HEADER
  9
$ACADVER
  1
AC1015
  9
$ACADMAINTVER
 70
     6
  9
$DWGCODEPAGE
  3
ANSI_1252
  9
$INSBASE
 10
0.0
 20
0.0
 30
0.0
  9
$EXTMIN
 10
1.000000000000000E+20
 20
1.000000000000000E+20
 30
1.000000000000000E+20
  9
$EXTMAX
 10
-1.000000000000000E+20
 20
-1.000000000000000E+20
 30
-1.000000000000000E+20
  9
$LIMMIN
 10
0.0
 20
0.0
  9
$LIMMAX
 10
12.0
 20
9.0
  9
$ORTHOMODE
 70
     0
  9
$REGENMODE
 70
     1
  9
$FILLMODE
 70
     1
  9
$QTEXTMODE
 70
     0
  9
$MIRRTEXT
 70
     1
  9
$LTSCALE
 40
1.0
  9
$ATTMODE
 70
     1
  9
$TEXTSIZE
 40
0.2
  9
$TRACEWID
 40
0.05
  9
$TEXTSTYLE
  7
Standard
  9
$CLAYER
  8
0
  9
$CELTYPE
  6
ByLayer
  9
$CECOLOR
 62
   256
  9
$CELTSCALE
 40
1.0
  9
$DISPSILH
 70
     0
  9
$DIMSCALE
 40
1.0
  9
$DIMASZ
 40
0.18
  9
$DIMEXO
 40
0.0625
  9
$DIMDLI
 40
0.38
  9
$DIMRND
 40
0.0
  9
$DIMDLE
 40
0.0
  9
$DIMEXE
 40
0.18
  9
$DIMTP
 40
0.0
  9
$DIMTM
 40
0.0
  9
$DIMTXT
 40
0.18
  9
$DIMCEN
 40
0.09
  9
$DIMTSZ
 40
0.0
  9
$DIMTOL
 70
     0
  9
$DIMLIM
 70
     0
  9
$DIMTIH
 70
     1
  9
$DIMTOH
 70
     1
  9
$DIMSE1
 70
     0
  9
$DIMSE2
 70
     0
  9
$DIMTAD
 70
     0
  9
$DIMZIN
 70
     0
  9
$DIMBLK
  1

  9
$DIMASO
 70
     1
  9
$DIMSHO
 70
     1
  9
$DIMPOST
  1

  9
$DIMAPOST
  1

  9
$DIMALT
 70
     0
  9
$DIMALTD
 70
     2
  9
$DIMALTF
 40
25.4
  9
$DIMLFAC
 40
1.0
  9
$DIMTOFL
 70
     0
  9
$DIMTVP
 40
0.0
  9
$DIMTIX
 70
     0
  9
$DIMSOXD
 70
     0
  9
$DIMSAH
 70
     0
  9
$DIMBLK1
  1

  9
$DIMBLK2
  1

  9
$DIMSTYLE
  2
Standard
  9
$DIMCLRD
 70
     0
  9
$DIMCLRE
 70
     0
  9
$DIMCLRT
 70
     0
  9
$DIMTFAC
 40
1.0
  9
$DIMGAP
 40
0.09
  9
$DIMJUST
 70
     0
  9
$DIMSD1
 70
     0
  9
$DIMSD2
 70
     0
  9
$DIMTOLJ
 70
     1
  9
$DIMTZIN
 70
     0
  9
$DIMALTZ
 70
     0
  9
$DIMALTTZ
 70
     0
  9
$DIMUPT
 70
     0
  9
$DIMDEC
 70
     4
  9
$DIMTDEC
 70
     4
  9
$DIMALTU
 70
     2
  9
$DIMALTTD
 70
     2
  9
$DIMTXSTY
  7
Standard
  9
$DIMAUNIT
 70
     0
  9
$DIMADEC
 70
     0
  9
$DIMALTRND
 40
0.0
  9
$DIMAZIN
 70
     0
  9
$DIMDSEP
 70
    46
  9
$DIMATFIT
 70
     3
  9
$DIMFRAC
 70
     0
  9
$DIMLDRBLK
  1

  9
$DIMLUNIT
 70
     2
  9
$DIMLWD
 70
    -2
  9
$DIMLWE
 70
    -2
  9
$DIMTMOVE
 70
     0
  9
$LUNITS
 70
     2
  9
$LUPREC
 70
     4
  9
$SKETCHINC
 40
0.1
  9
$FILLETRAD
 40
0.5
  9
$AUNITS
 70
     0
  9
$AUPREC
 70
     0
  9
$MENU
  1
.
  9
$ELEVATION
 40
0.0
  9
$PELEVATION
 40
0.0
  9
$THICKNESS
 40
0.0
  9
$LIMCHECK
 70
     0
  9
$CHAMFERA
 40
0.5
  9
$CHAMFERB
 40
0.5
  9
$CHAMFERC
 40
1.0
  9
$CHAMFERD
 40
0.0
  9
$SKPOLY
 70
     0
  9
$TDCREATE
 40
2456510.573338611
  9
$TDUCREATE
 40
2456510.177505278
  9
$TDUPDATE
 40
2456510.573338623
  9
$TDUUPDATE
 40
2456510.177505289
  9
$TDINDWG
 40
0.0000000116
  9
$TDUSRTIMER
 40
0.0000000116
  9
$USRTIMER
 70
     1
  9
$ANGBASE
 50
0.0
  9
$ANGDIR
 70
     0
  9
$PDMODE
 70
     0
  9
$PDSIZE
 40
0.0
  9
$PLINEWID
 40
0.0
  9
$SPLFRAME
 70
     0
  9
$SPLINETYPE
 70
     6
  9
$SPLINESEGS
 70
     8
  9
$HANDSEED
  5
4BD
  9
$SURFTAB1
 70
     6
  9
$SURFTAB2
 70
     6
  9
$SURFTYPE
 70
     6
  9
$SURFU
 70
     6
  9
$SURFV
 70
     6
  9
$UCSBASE
  2

  9
$UCSNAME
  2

  9
$UCSORG
 10
0.0
 20
0.0
 30
0.0
  9
$UCSXDIR
 10
1.0
 20
0.0
 30
0.0
  9
$UCSYDIR
 10
0.0
 20
1.0
 30
0.0
  9
$UCSORTHOREF
  2

  9
$UCSORTHOVIEW
 70
     0
  9
$UCSORGTOP
 10
0.0
 20
0.0
 30
0.0
  9
$UCSORGBOTTOM
 10
0.0
 20
0.0
 30
0.0
  9
$UCSORGLEFT
 10
0.0
 20
0.0
 30
0.0
  9
$UCSORGRIGHT
 10
0.0
 20
0.0
 30
0.0
  9
$UCSORGFRONT
 10
0.0
 20
0.0
 30
0.0
  9
$UCSORGBACK
 10
0.0
 20
0.0
 30
0.0
  9
$PUCSBASE
  2

  9
$PUCSNAME
  2

  9
$PUCSORG
 10
0.0
 20
0.0
 30
0.0
  9
$PUCSXDIR
 10
1.0
 20
0.0
 30
0.0
  9
$PUCSYDIR
 10
0.0
 20
1.0
 30
0.0
  9
$PUCSORTHOREF
  2

  9
$PUCSORTHOVIEW
 70
     0
  9
$PUCSORGTOP
 10
0.0
 20
0.0
 30
0.0
  9
$PUCSORGBOTTOM
 10
0.0
 20
0.0
 30
0.0
  9
$PUCSORGLEFT
 10
0.0
 20
0.0
 30
0.0
  9
$PUCSORGRIGHT
 10
0.0
 20
0.0
 30
0.0
  9
$PUCSORGFRONT
 10
0.0
 20
0.0
 30
0.0
  9
$PUCSORGBACK
 10
0.0
 20
0.0
 30
0.0
  9
$USERI1
 70
     0
  9
$USERI2
 70
     0
  9
$USERI3
 70
     0
  9
$USERI4
 70
     0
  9
$USERI5
 70
     0
  9
$USERR1
 40
0.0
  9
$USERR2
 40
0.0
  9
$USERR3
 40
0.0
  9
$USERR4
 40
0.0
  9
$USERR5
 40
0.0
  9
$WORLDVIEW
 70
     1
  9
$SHADEDGE
 70
     3
  9
$SHADEDIF
 70
    70
  9
$TILEMODE
 70
     1
  9
$MAXACTVP
 70
    64
  9
$PINSBASE
 10
0.0
 20
0.0
 30
0.0
  9
$PLIMCHECK
 70
     0
  9
$PEXTMIN
 10
1.000000000000000E+20
 20
1.000000000000000E+20
 30
1.000000000000000E+20
  9
$PEXTMAX
 10
-1.000000000000000E+20
 20
-1.000000000000000E+20
 30
-1.000000000000000E+20
  9
$PLIMMIN
 10
0.0
 20
0.0
  9
$PLIMMAX
 10
12.0
 20
9.0
  9
$UNITMODE
 70
     0
  9
$VISRETAIN
 70
     1
  9
$PLINEGEN
 70
     0
  9
$PSLTSCALE
 70
     1
  9
$TREEDEPTH
 70
  3020
  9
$CMLSTYLE
  2
Standard
  9
$CMLJUST
 70
     0
  9
$CMLSCALE
 40
1.0
  9
$PROXYGRAPHICS
 70
     1
  9
$MEASUREMENT
 70
     0
  9
$CELWEIGHT
370
    -1
  9
$ENDCAPS
280
     0
  9
$JOINSTYLE
280
     0
  9
$LWDISPLAY
290
     1
  9
$INSUNITS
 70
     1
  9
$HYPERLINKBASE
  1

  9
$STYLESHEET
  1

  9
$XEDIT
290
     1
  9
$CEPSNTYPE
380
     0
  9
$PSTYLEMODE
290
     1
  9
$FINGERPRINTGUID
  2
{46DA4BEC-25D9-4E62-9294-52D915C6D736}
  9
$VERSIONGUID
  2
{FAEB1C32-E019-11D5-929B-00C0DF256EC4}
  9
$EXTNAMES
290
     1
  9
$PSVPSCALE
 40
0.0
  9
$OLESTARTUP
290
     0
  0
ENDSEC
  0
SECTION
  2
CLASSES
  0
CLASS
  1
ACDBDICTIONARYWDFLT
  2
AcDbDictionaryWithDefault
  3
ObjectDBX Classes
 90
        0
280
     0
281
     0
  0
CLASS
  1
VISUALSTYLE
  2
AcDbVisualStyle
  3
ObjectDBX Classes
 90
     4095
280
     0
281
     0
  0
CLASS
  1
ACDBPLACEHOLDER
  2
AcDbPlaceHolder
  3
ObjectDBX Classes
 90
        0
280
     0
281
     0
  0
CLASS
  1
LAYOUT
  2
AcDbLayout
  3
ObjectDBX Classes
 90
        0
280
     0
281
     0
  0
ENDSEC
  0
SECTION
  2
TABLES
  0
TABLE
  2
VPORT
  5
8
330
0
100
AcDbSymbolTable
 70
     1
  0
VPORT
  5
29
330
8
100
AcDbSymbolTableRecord
100
AcDbViewportTableRecord
  2
*Active
 70
     0
 10
0.0
 20
0.0
 11
1.0
 21
1.0
 12
0.0
 22
0.0
 13
0.0
 23
0.0
 14
0.5
 24
0.5
 15
0.5
 25
0.5
 16
0.0
 26
0.0
 36
1.0
 17
257.3623270027168
 27
757.0548236225853
 37
0.0
 40
1514.109647245171
 41
1.230424474879985
 42
50.0
 43
0.0
 44
0.0
 50
0.0
 51
0.0
 71
     0
 72
   100
 73
     1
 74
     3
 75
     0
 76
     0
 77
     0
 78
     0
281
     0
 65
     1
110
0.0
120
0.0
130
0.0
111
1.0
121
0.0
131
0.0
112
0.0
122
1.0
132
0.0
 79
     0
146
0.0
  0
ENDTAB
  0
TABLE
  2
LTYPE
  5
5
330
0
100
AcDbSymbolTable
 70
     1
  0
LTYPE
  5
14
330
5
100
AcDbSymbolTableRecord
100
AcDbLinetypeTableRecord
  2
ByBlock
 70
     0
  3

 72
    65
 73
     0
 40
0.0
  0
LTYPE
  5
15
330
5
100
AcDbSymbolTableRecord
100
AcDbLinetypeTableRecord
  2
ByLayer
 70
     0
  3

 72
    65
 73
     0
 40
0.0
  0
LTYPE
  5
16
330
5
100
AcDbSymbolTableRecord
100
AcDbLinetypeTableRecord
  2
Continuous
 70
     0
  3
Solid line
 72
    65
 73
     0
 40
0.0
  0
ENDTAB
  0
TABLE
  2
LAYER
  5
2
330
0
100
AcDbSymbolTable
 70
     2
  0
LAYER
  5
10
330
2
100
AcDbSymbolTableRecord
100
AcDbLayerTableRecord
  2
0
 70
     0
 62
     7
  6
Continuous
370
    -3
390
F
  0
LAYER
  5
3B
330
2
100
AcDbSymbolTableRecord
100
AcDbLayerTableRecord
  2
Layer 1
 70
     0
 62
     7
  6
Continuous
370
    -3
390
F
  0
ENDTAB
  0
TABLE
  2
STYLE
  5
3
330
0
100
AcDbSymbolTable
 70
     1
  0
STYLE
  5
11
330
3
100
AcDbSymbolTableRecord
100
AcDbTextStyleTableRecord
  2
Standard
 70
     0
 40
0.0
 41
1.0
 50
0.0
 71
     0
 42
0.2
  3
txt
  4

  0
ENDTAB
  0
TABLE
  2
VIEW
  5
6
330
0
100
AcDbSymbolTable
 70
     0
  0
ENDTAB
  0
TABLE
  2
UCS
  5
7
330
0
100
AcDbSymbolTable
 70
     0
  0
ENDTAB
  0
TABLE
  2
APPID
  5
9
330
0
100
AcDbSymbolTable
 70
     1
  0
APPID
  5
12
330
9
100
AcDbSymbolTableRecord
100
AcDbRegAppTableRecord
  2
ACAD
 70
     0
  0
ENDTAB
  0
TABLE
  2
DIMSTYLE
  5
A
330
0
100
AcDbSymbolTable
 70
     1
100
AcDbDimStyleTable
  0
DIMSTYLE
105
27
330
A
100
AcDbSymbolTableRecord
100
AcDbDimStyleTableRecord
  2
Standard
 70
     0
340
11
  0
ENDTAB
  0
TABLE
  2
BLOCK_RECORD
  5
1
330
0
100
AcDbSymbolTable
 70
     3
  0
BLOCK_RECORD
  5
1F
330
1
100
AcDbSymbolTableRecord
100
AcDbBlockTableRecord
  2
*Model_Space
340
22
  0
BLOCK_RECORD
  5
1B
330
1
100
AcDbSymbolTableRecord
100
AcDbBlockTableRecord
  2
*Paper_Space
340
1E
  0
BLOCK_RECORD
  5
23
330
1
100
AcDbSymbolTableRecord
100
AcDbBlockTableRecord
  2
*Paper_Space0
340
26
  0
BLOCK_RECORD
  5
3C
330
1
100
AcDbSymbolTableRecord
100
AcDbBlockTableRecord
  2
block 2
340
0
102
{BLKREFS
331
3D
102
}
  0
BLOCK_RECORD
  5
4A9
330
1
100
AcDbSymbolTableRecord
100
AcDbBlockTableRecord
  2
block 3
340
0
102
{BLKREFS
331
4AA
102
}
  0
ENDTAB
  0
ENDSEC
  0
SECTION
  2
BLOCKS
  0
BLOCK
  5
20
330
1F
100
AcDbEntity
  8
0
100
AcDbBlockBegin
  2
*Model_Space
 70
     0
 71
     0
 10
0.0
 20
0.0
 30
0.0
  3
*Model_Space
  1

  0
ENDBLK
  5
21
330
1F
100
AcDbEntity
  8
0
100
AcDbBlockEnd
  0
BLOCK
  5
1C
330
1B
100
AcDbEntity
 67
     1
  8
0
100
AcDbBlockBegin
  2
*Paper_Space
 70
     0
 71
     0
 10
0.0
 20
0.0
 30
0.0
  3
*Paper_Space
  1

  0
ENDBLK
  5
1D
330
1B
100
AcDbEntity
 67
     1
  8
0
100
AcDbBlockEnd
  0
BLOCK
  5
24
330
23
100
AcDbEntity
  8
0
100
AcDbBlockBegin
  2
*Paper_Space0
 70
     0
 71
     0
 10
0.0
 20
0.0
 30
0.0
  3
*Paper_Space0
  1

  0
ENDBLK
  5
25
330
23
100
AcDbEntity
  8
0
100
AcDbBlockEnd
  0
BLOCK
  5
3E
330
3C
100
AcDbEntity
  8
0
100
AcDbBlockBegin
  2
block 2
 70
     0
 71
     0
 10
0.0
 20
0.0
 30
0.0
  3
block 2
  1

  0
POLYLINE
  5
40
330
3C
100
AcDbEntity
  8
Layer 1
 62
     7
370
    15
100
AcDb2dPolyline
 66
     1
 10
0.0
 20
0.0
 30
0.0
  0
VERTEX
  5
41
330
40
100
AcDbEntity
  8
Layer 1
 62
     7
370
    15
100
AcDbVertex
100
AcDb2dVertex
 10
50.25515813630774
 20
648.9013046337816
 30
0.0
  0
VERTEX
  5
42
330
40
100
AcDbEntity
  8
Layer 1
 62
     7
370
    15
100
AcDbVertex
100
AcDb2dVertex
 10
470.2545002079572
 20
648.9013046337816
 30
0.0
  0
SEQEND
  5
43
330
40
100
AcDbEntity
  8
Layer 1
370
    15
  0
SPLINE
  5
44
330
3C
100
AcDbEntity
  8
Layer 1
 62
     7
370
    15
100
AcDbSpline
210
0.0
220
0.0
230
1.0
 70
    11
 71
     3
 72
    17
 73
    13
 74
     0
 42
0.0000000001
 43
0.0000000001
 40
0.0
 40
0.0
 40
0.0
 40
0.0
 40
1.0
 40
1.0
 40
1.0
 40
2.0
 40
2.0
 40
2.0
 40
3.0
 40
3.0
 40
3.0
 40
4.0
 40
4.0
 40
4.0
 40
4.0
 10
242.7546915083217
 20
1093.900498858469
 30
0.0
 10
242.7546915083217
 20
1084.235800238924
 30
0.0
 10
250.5895276608769
 20
1076.40061957682
 30
0.0
 10
260.2543985351969
 20
1076.40061957682
 30
0.0
 10
269.9196139190652
 20
1076.40061957682
 30
0.0
 10
277.7544500716205
 20
1084.235800238924
 30
0.0
 10
277.7544500716205
 20
1093.900498858469
 30
0.0
 10
277.7544500716205
 20
1103.565369732789
 30
0.0
 10
269.9196139190652
 20
1111.400722649667
 30
0.0
 10
260.2543985351969
 20
1111.400722649667
 30
0.0
 10
250.5895276608769
 20
1111.400722649667
 30
0.0
 10
242.7546915083217
 20
1103.565369732789
 30
0.0
 10
242.7546915083217
 20
1093.900498858469
 30
0.0
  0
POLYLINE
  5
45
330
3C
100
AcDbEntity
  8
Layer 1
 62
     7
370
    15
100
AcDb2dPolyline
 66
     1
 10
0.0
 20
0.0
 30
0.0
  0
VERTEX
  5
46
330
45
100
AcDbEntity
  8
Layer 1
 62
     7
370
    15
100
AcDbVertex
100
AcDb2dVertex
 10
520.2545490235822
 20
1108.900444601247
 30
0.0
  0
VERTEX
  5
47
330
45
100
AcDbEntity
  8
Layer 1
 62
     7
370
    15
100
AcDbVertex
100
AcDb2dVertex
 10
520.2545490235822
 20
648.9013046337816
 30
0.0
  0
SEQEND
  5
48
330
45
100
AcDbEntity
  8
Layer 1
370
    15
  0
SPLINE
  5
49
330
3C
100
AcDbEntity
  8
Layer 1
 62
     7
370
    15
100
AcDbSpline
210
0.0
220
0.0
230
1.0
 70
     8
 71
     3
 72
     8
 73
     4
 74
     0
 42
0.0000000001
 43
0.0000000001
 40
0.0
 40
0.0
 40
0.0
 40
0.0
 40
1.0
 40
1.0
 40
1.0
 40
1.0
 10
520.2545490235822
 20
1108.900444601247
 30
0.0
 10
520.2545490235822
 20
1122.707526032257
 30
0.0
 10
509.0621228111025
 20
1133.900641263834
 30
0.0
 10
495.2548691253182
 20
1133.900641263834
 30
0.0
  0
POLYLINE
  5
4A
330
3C
100
AcDbEntity
  8
Layer 1
 62
     7
370
    15
100
AcDb2dPolyline
 66
     1
 10
0.0
 20
0.0
 30
0.0
  0
VERTEX
  5
4B
330
4A
100
AcDbEntity
  8
Layer 1
 62
     7
370
    15
100
AcDbVertex
100
AcDb2dVertex
 10
25.25496147372098
 20
1133.900641263834
 30
0.0
  0
VERTEX
  5
4C
330
4A
100
AcDbEntity
  8
Layer 1
 62
     7
370
    15
100
AcDbVertex
100
AcDb2dVertex
 10
495.2548691253182
 20
1133.900641263834
 30
0.0
  0
SEQEND
  5
4D
330
4A
100
AcDbEntity
  8
Layer 1
370
    15
  0
SPLINE
  5
4E
330
3C
100
AcDbEntity
  8
Layer 1
 62
     7
370
    15
100
AcDbSpline
210
0.0
220
0.0
230
1.0
 70
     8
 71
     3
 72
     8
 73
     4
 74
     0
 42
0.0000000001
 43
0.0000000001
 40
0.0
 40
0.0
 40
0.0
 40
0.0
 40
1.0
 40
1.0
 40
1.0
 40
1.0
 10
25.25496147372098
 20
1133.900641263834
 30
0.0
 10
11.44788004271095
 20
1133.900641263834
 30
0.0
 10
0.254937065908488
 20
1122.707526032257
 30
0.0
 10
0.254937065908488
 20
1108.900444601247
 30
0.0
  0
POLYLINE
  5
4F
330
3C
100
AcDbEntity
  8
Layer 1
 62
     7
370
    15
100
AcDb2dPolyline
 66
     1
 10
0.0
 20
0.0
 30
0.0
  0
VERTEX
  5
50
330
4F
100
AcDbEntity
  8
Layer 1
 62
     7
370
    15
100
AcDbVertex
100
AcDb2dVertex
 10
0.254937065908488
 20
648.9013046337816
 30
0.0
  0
VERTEX
  5
51
330
4F
100
AcDbEntity
  8
Layer 1
 62
     7
370
    15
100
AcDbVertex
100
AcDb2dVertex
 10
0.254937065908488
 20
1108.900444601247
 30
0.0
  0
SEQEND
  5
52
330
4F
100
AcDbEntity
  8
Layer 1
370
    15
  0
SPLINE
  5
53
330
3C
100
AcDbEntity
  8
Layer 1
 62
     7
370
    15
100
AcDbSpline
210
0.0
220
0.0
230
1.0
 70
     8
 71
     3
 72
     8
 73
     4
 74
     0
 42
0.0000000001
 43
0.0000000001
 40
0.0
 40
0.0
 40
0.0
 40
0.0
 40
1.0
 40
1.0
 40
1.0
 40
1.0
 10
0.254937065908488
 20
648.9013046337816
 30
0.0
 10
0.254937065908488
 20
635.0940509479974
 30
0.0
 10
11.44788004271095
 20
623.9012802259691
 30
0.0
 10
25.25496147372098
 20
623.9012802259691
 30
0.0
  0
POLYLINE
  5
54
330
3C
100
AcDbEntity
  8
Layer 1
 62
     7
370
    15
100
AcDb2dPolyline
 66
     1
 10
0.0
 20
0.0
 30
0.0
  0
VERTEX
  5
55
330
54
100
AcDbEntity
  8
Layer 1
 62
     7
370
    15
100
AcDbVertex
100
AcDb2dVertex
 10
495.2548691253182
 20
623.9012802259691
 30
0.0
  0
VERTEX
  5
56
330
54
100
AcDbEntity
  8
Layer 1
 62
     7
370
    15
100
AcDbVertex
100
AcDb2dVertex
 10
25.25496147372098
 20
623.9012802259691
 30
0.0
  0
SEQEND
  5
57
330
54
100
AcDbEntity
  8
Layer 1
370
    15
  0
SPLINE
  5
58
330
3C
100
AcDbEntity
  8
Layer 1
 62
     7
370
    15
100
AcDbSpline
210
0.0
220
0.0
230
1.0
 70
     8
 71
     3
 72
     8
 73
     4
 74
     0
 42
0.0000000001
 43
0.0000000001
 40
0.0
 40
0.0
 40
0.0
 40
0.0
 40
1.0
 40
1.0
 40
1.0
 40
1.0
 10
495.2548691253182
 20
623.9012802259691
 30
0.0
 10
509.0621228111025
 20
623.9012802259691
 30
0.0
 10
520.2545490235822
 20
635.0940509479974
 30
0.0
 10
520.2545490235822
 20
648.9013046337816
 30
0.0
  0
SPLINE
  5
59
330
3C
100
AcDbEntity
  8
Layer 1
 62
     7
370
    15
100
AcDbSpline
210
0.0
220
0.0
230
1.0
 70
     8
 71
     3
 72
     8
 73
     4
 74
     0
 42
0.0000000001
 43
0.0000000001
 40
0.0
 40
0.0
 40
0.0
 40
0.0
 40
1.0
 40
1.0
 40
1.0
 40
1.0
 10
25.25496147372098
 20
673.9009845320456
 30
0.0
 10
25.25496147372098
 20
660.0940753558099
 30
0.0
 10
36.4480767052977
 20
648.9013046337816
 30
0.0
 10
50.25515813630774
 20
648.9013046337816
 30
0.0
  0
SPLINE
  5
5A
330
3C
100
AcDbEntity
  8
Layer 1
 62
     7
370
    15
100
AcDbSpline
210
0.0
220
0.0
230
1.0
 70
     8
 71
     3
 72
     8
 73
     4
 74
     0
 42
0.0000000001
 43
0.0000000001
 40
0.0
 40
0.0
 40
0.0
 40
0.0
 40
1.0
 40
1.0
 40
1.0
 40
1.0
 10
495.2548691253182
 20
1028.900676554841
 30
0.0
 10
495.2548691253182
 20
1042.707757985851
 30
0.0
 10
484.0617538937415
 20
1053.900528707879
 30
0.0
 10
470.2545002079572
 20
1053.900528707879
 30
0.0
  0
POLYLINE
  5
5B
330
3C
100
AcDbEntity
  8
Layer 1
 62
     7
370
    15
100
AcDb2dPolyline
 66
     1
 10
0.0
 20
0.0
 30
0.0
  0
VERTEX
  5
5C
330
5B
100
AcDbEntity
  8
Layer 1
 62
     7
370
    15
100
AcDbVertex
100
AcDb2dVertex
 10
25.25496147372098
 20
1028.900676554841
 30
0.0
  0
VERTEX
  5
5D
330
5B
100
AcDbEntity
  8
Layer 1
 62
     7
370
    15
100
AcDbVertex
100
AcDb2dVertex
 10
25.25496147372098
 20
673.9009845320456
 30
0.0
  0
SEQEND
  5
5E
330
5B
100
AcDbEntity
  8
Layer 1
370
    15
  0
POLYLINE
  5
5F
330
3C
100
AcDbEntity
  8
Layer 1
 62
     7
370
    15
100
AcDb2dPolyline
 66
     1
 10
0.0
 20
0.0
 30
0.0
  0
VERTEX
  5
60
330
5F
100
AcDbEntity
  8
Layer 1
 62
     7
370
    15
100
AcDbVertex
100
AcDb2dVertex
 10
470.2545002079572
 20
1053.900528707879
 30
0.0
  0
VERTEX
  5
61
330
5F
100
AcDbEntity
  8
Layer 1
 62
     7
370
    15
100
AcDbVertex
100
AcDb2dVertex
 10
50.25515813630774
 20
1053.900528707879
 30
0.0
  0
SEQEND
  5
62
330
5F
100
AcDbEntity
  8
Layer 1
370
    15
  0
SPLINE
  5
63
330
3C
100
AcDbEntity
  8
Layer 1
 62
     7
370
    15
100
AcDbSpline
210
0.0
220
0.0
230
1.0
 70
     8
 71
     3
 72
     8
 73
     4
 74
     0
 42
0.0000000001
 43
0.0000000001
 40
0.0
 40
0.0
 40
0.0
 40
0.0
 40
1.0
 40
1.0
 40
1.0
 40
1.0
 10
50.25515813630774
 20
1053.900528707879
 30
0.0
 10
36.4480767052977
 20
1053.900528707879
 30
0.0
 10
25.25496147372098
 20
1042.707757985851
 30
0.0
 10
25.25496147372098
 20
1028.900676554841
 30
0.0
  0
POLYLINE
  5
64
330
3C
100
AcDbEntity
  8
Layer 1
 62
     7
370
    15
100
AcDb2dPolyline
 66
     1
 10
0.0
 20
0.0
 30
0.0
  0
VERTEX
  5
65
330
64
100
AcDbEntity
  8
Layer 1
 62
     7
370
    15
100
AcDbVertex
100
AcDb2dVertex
 10
495.2548691253182
 20
673.9009845320456
 30
0.0
  0
VERTEX
  5
66
330
64
100
AcDbEntity
  8
Layer 1
 62
     7
370
    15
100
AcDbVertex
100
AcDb2dVertex
 10
495.2548691253182
 20
1028.900676554841
 30
0.0
  0
SEQEND
  5
67
330
64
100
AcDbEntity
  8
Layer 1
370
    15
  0
SPLINE
  5
68
330
3C
100
AcDbEntity
  8
Layer 1
 62
     7
370
    15
100
AcDbSpline
210
0.0
220
0.0
230
1.0
 70
     8
 71
     3
 72
     8
 73
     4
 74
     0
 42
0.0000000001
 43
0.0000000001
 40
0.0
 40
0.0
 40
0.0
 40
0.0
 40
1.0
 40
1.0
 40
1.0
 40
1.0
 10
470.2545002079572
 20
648.9013046337816
 30
0.0
 10
484.0617538937415
 20
648.9013046337816
 30
0.0
 10
495.2548691253182
 20
660.0940753558099
 30
0.0
 10
495.2548691253182
 20
673.9009845320456
 30
0.0
  0
SPLINE
  5
69
330
3C
100
AcDbEntity
  8
Layer 1
 62
     7
370
    15
100
AcDbSpline
210
0.0
220
0.0
230
1.0
 70
    11
 71
     3
 72
    17
 73
    13
 74
     0
 42
0.0000000001
 43
0.0000000001
 40
0.0
 40
0.0
 40
0.0
 40
0.0
 40
1.0
 40
1.0
 40
1.0
 40
2.0
 40
2.0
 40
2.0
 40
3.0
 40
3.0
 40
3.0
 40
4.0
 40
4.0
 40
4.0
 40
4.0
 10
200.2547878188599
 20
923.9005395910735
 30
0.0
 10
200.2547878188599
 20
890.763888666198
 30
0.0
 10
227.1180921198698
 20
863.9009288747366
 30
0.0
 10
260.2543985351969
 20
863.9009288747366
 30
0.0
 10
293.3913939696209
 20
863.9009288747366
 30
0.0
 10
320.2545260158565
 20
890.763888666198
 30
0.0
 10
320.2545260158565
 20
923.9005395910735
 30
0.0
 10
320.2545260158565
 20
957.0377072802719
 30
0.0
 10
293.3913939696209
 20
983.9006670717332
 30
0.0
 10
260.2543985351969
 20
983.9006670717332
 30
0.0
 10
227.1180921198698
 20
983.9006670717332
 30
0.0
 10
200.2547878188599
 20
957.0377072802719
 30
0.0
 10
200.2547878188599
 20
923.9005395910735
 30
0.0
  0
SPLINE
  5
6A
330
3C
100
AcDbEntity
  8
Layer 1
 62
     7
370
    15
100
AcDbSpline
210
0.0
220
0.0
230
1.0
 70
    11
 71
     3
 72
    17
 73
    13
 74
     0
 42
0.0000000001
 43
0.0000000001
 40
0.0
 40
0.0
 40
0.0
 40
0.0
 40
1.0
 40
1.0
 40
1.0
 40
2.0
 40
2.0
 40
2.0
 40
3.0
 40
3.0
 40
3.0
 40
4.0
 40
4.0
 40
4.0
 40
4.0
 10
203.255121476964
 20
923.9005395910735
 30
0.0
 10
203.255121476964
 20
892.4206350850546
 30
0.0
 10
228.7744940291779
 20
866.9007457685179
 30
0.0
 10
260.2543985351969
 20
866.9007457685179
 30
0.0
 10
291.7353365698613
 20
866.9007457685179
 30
0.0
 10
317.2545368673009
 20
892.4206350850546
 30
0.0
 10
317.2545368673009
 20
923.9005395910735
 30
0.0
 10
317.2545368673009
 20
955.3809608614152
 30
0.0
 10
291.7353365698613
 20
980.900850177952
 30
0.0
 10
260.2543985351969
 20
980.900850177952
 30
0.0
 10
228.7744940291779
 20
980.900850177952
 30
0.0
 10
203.255121476964
 20
955.3809608614152
 30
0.0
 10
203.255121476964
 20
923.9005395910735
 30
0.0
  0
SPLINE
  5
6B
330
3C
100
AcDbEntity
  8
Layer 1
 62
     7
370
    15
100
AcDbSpline
210
0.0
220
0.0
230
1.0
 70
    11
 71
     3
 72
    17
 73
    13
 74
     0
 42
0.0000000001
 43
0.0000000001
 40
0.0
 40
0.0
 40
0.0
 40
0.0
 40
1.0
 40
1.0
 40
1.0
 40
2.0
 40
2.0
 40
2.0
 40
3.0
 40
3.0
 40
3.0
 40
4.0
 40
4.0
 40
4.0
 40
4.0
 10
215.20632997007
 20
923.9005395910735
 30
0.0
 10
215.20632997007
 20
899.0214380347933
 30
0.0
 10
235.3756414884651
 20
878.8522987711724
 30
0.0
 10
260.2543985351969
 20
878.8522987711724
 30
0.0
 10
285.1341891105741
 20
878.8522987711724
 30
0.0
 10
305.3035006289693
 20
899.0214380347933
 30
0.0
 10
305.3035006289693
 20
923.9005395910735
 30
0.0
 10
305.3035006289693
 20
948.7803301664508
 30
0.0
 10
285.1341891105741
 20
968.9492971752975
 30
0.0
 10
260.2543985351969
 20
968.9492971752975
 30
0.0
 10
235.3756414884651
 20
968.9492971752975
 30
0.0
 10
215.20632997007
 20
948.7803301664508
 30
0.0
 10
215.20632997007
 20
923.9005395910735
 30
0.0
  0
SPLINE
  5
6C
330
3C
100
AcDbEntity
  8
Layer 1
 62
     7
370
    15
100
AcDbSpline
210
0.0
220
0.0
230
1.0
 70
    11
 71
     3
 72
    17
 73
    13
 74
     0
 42
0.0000000001
 43
0.0000000001
 40
0.0
 40
0.0
 40
0.0
 40
0.0
 40
1.0
 40
1.0
 40
1.0
 40
2.0
 40
2.0
 40
2.0
 40
3.0
 40
3.0
 40
3.0
 40
4.0
 40
4.0
 40
4.0
 40
4.0
 10
215.254905816412
 20
923.9005395910735
 30
0.0
 10
215.254905816412
 20
899.0479652700297
 30
0.0
 10
235.4021687237015
 20
878.9010468722887
 30
0.0
 10
260.2543985351969
 20
878.9010468722887
 30
0.0
 10
285.1076618753377
 20
878.9010468722887
 30
0.0
 10
305.2545802730787
 20
899.0479652700297
 30
0.0
 10
305.2545802730787
 20
923.9005395910735
 30
0.0
 10
305.2545802730787
 20
948.7536306764401
 30
0.0
 10
285.1076618753377
 20
968.9005490741812
 30
0.0
 10
260.2543985351969
 20
968.9005490741812
 30
0.0
 10
235.4021687237015
 20
968.9005490741812
 30
0.0
 10
215.254905816412
 20
948.7536306764401
 30
0.0
 10
215.254905816412
 20
923.9005395910735
 30
0.0
  0
POLYLINE
  5
6D
330
3C
100
AcDbEntity
  8
Layer 1
370
     0
100
AcDb2dPolyline
 66
     1
 10
0.0
 20
0.0
 30
0.0
  0
VERTEX
  5
6E
330
6D
100
AcDbEntity
  8
Layer 1
370
     0
100
AcDbVertex
100
AcDb2dVertex
 10
0.254937065908488
 20
1372.267831416916
 30
0.0
  0
VERTEX
  5
6F
330
6D
100
AcDbEntity
  8
Layer 1
370
     0
100
AcDbVertex
100
AcDb2dVertex
 10
30.25500080623834
 20
1377.267870749433
 30
0.0
  0
VERTEX
  5
70
330
6D
100
AcDbEntity
  8
Layer 1
370
     0
100
AcDbVertex
100
AcDb2dVertex
 10
30.25500080623834
 20
1367.268136593947
 30
0.0
  0
SEQEND
  5
71
330
6D
100
AcDbEntity
  8
Layer 1
370
     0
  0
HATCH
  5
72
330
3C
100
AcDbEntity
  8
Layer 1
 62
     7
100
AcDbHatch
 10
0.0
 20
0.0
 30
0.0
210
0.0
220
0.0
230
1.0
  2
SOLID
 70
     1
 71
     0
 91
        1
 92
        1
 93
        3
 72
     1
 10
0.254937065908488
 20
1372.267831416916
 11
30.25500080623834
 21
1377.267870749433
 72
     1
 10
30.25500080623834
 20
1377.267870749433
 11
30.25500080623834
 21
1367.268136593947
 72
     1
 10
30.25500080623834
 20
1367.268136593947
 11
0.254937065908488
 21
1372.267831416916
 97
        0
 75
     2
 76
     1
 98
        0
  0
POLYLINE
  5
73
330
3C
100
AcDbEntity
  8
Layer 1
370
     0
100
AcDb2dPolyline
 66
     1
 10
0.0
 20
0.0
 30
0.0
  0
VERTEX
  5
74
330
73
100
AcDbEntity
  8
Layer 1
370
     0
100
AcDbVertex
100
AcDb2dVertex
 10
520.2545490235822
 20
1372.267831416916
 30
0.0
  0
VERTEX
  5
75
330
73
100
AcDbEntity
  8
Layer 1
370
     0
100
AcDbVertex
100
AcDb2dVertex
 10
490.2539685189296
 20
1367.268136593947
 30
0.0
  0
VERTEX
  5
76
330
73
100
AcDbEntity
  8
Layer 1
370
     0
100
AcDbVertex
100
AcDb2dVertex
 10
490.2539685189296
 20
1377.267870749433
 30
0.0
  0
SEQEND
  5
77
330
73
100
AcDbEntity
  8
Layer 1
370
     0
  0
HATCH
  5
78
330
3C
100
AcDbEntity
  8
Layer 1
 62
     7
100
AcDbHatch
 10
0.0
 20
0.0
 30
0.0
210
0.0
220
0.0
230
1.0
  2
SOLID
 70
     1
 71
     0
 91
        1
 92
        1
 93
        3
 72
     1
 10
520.2545490235822
 20
1372.267831416916
 11
490.2539685189296
 21
1367.268136593947
 72
     1
 10
490.2539685189296
 20
1367.268136593947
 11
490.2539685189296
 21
1377.267870749433
 72
     1
 10
490.2539685189296
 20
1377.267870749433
 11
520.2545490235822
 21
1372.267831416916
 97
        0
 75
     2
 76
     1
 98
        0
  0
POLYLINE
  5
79
330
3C
100
AcDbEntity
  8
Layer 1
 62
     7
370
    25
100
AcDb2dPolyline
 66
     1
 10
0.0
 20
0.0
 30
0.0
  0
VERTEX
  5
7A
330
79
100
AcDbEntity
  8
Layer 1
 62
     7
370
    25
100
AcDbVertex
100
AcDb2dVertex
 10
0.254937065908488
 20
1174.620119606519
 30
0.0
  0
VERTEX
  5
7B
330
79
100
AcDbEntity
  8
Layer 1
 62
     7
370
    25
100
AcDbVertex
100
AcDb2dVertex
 10
0.254937065908488
 20
1382.268082336725
 30
0.0
  0
SEQEND
  5
7C
330
79
100
AcDbEntity
  8
Layer 1
370
    25
  0
POLYLINE
  5
7D
330
3C
100
AcDbEntity
  8
Layer 1
 62
     7
370
    25
100
AcDb2dPolyline
 66
     1
 10
0.0
 20
0.0
 30
0.0
  0
VERTEX
  5
7E
330
7D
100
AcDbEntity
  8
Layer 1
 62
     7
370
    25
100
AcDbVertex
100
AcDb2dVertex
 10
520.2545490235822
 20
1175.193383495264
 30
0.0
  0
VERTEX
  5
7F
330
7D
100
AcDbEntity
  8
Layer 1
 62
     7
370
    25
100
AcDbVertex
100
AcDb2dVertex
 10
520.2545490235822
 20
1382.268082336725
 30
0.0
  0
SEQEND
  5
80
330
7D
100
AcDbEntity
  8
Layer 1
370
    25
  0
POLYLINE
  5
81
330
3C
100
AcDbEntity
  8
Layer 1
 62
     7
370
    25
100
AcDb2dPolyline
 66
     1
 10
0.0
 20
0.0
 30
0.0
  0
VERTEX
  5
82
330
81
100
AcDbEntity
  8
Layer 1
 62
     7
370
    25
100
AcDbVertex
100
AcDb2dVertex
 10
0.254937065908488
 20
1372.267831416916
 30
0.0
  0
VERTEX
  5
83
330
81
100
AcDbEntity
  8
Layer 1
 62
     7
370
    25
100
AcDbVertex
100
AcDb2dVertex
 10
520.2545490235822
 20
1372.267831416916
 30
0.0
  0
SEQEND
  5
84
330
81
100
AcDbEntity
  8
Layer 1
370
    25
  0
POLYLINE
  5
85
330
3C
100
AcDbEntity
  8
Layer 1
 62
     7
370
    25
100
AcDb2dPolyline
 66
     1
 10
0.0
 20
0.0
 30
0.0
  0
VERTEX
  5
86
330
85
100
AcDbEntity
  8
Layer 1
 62
     7
370
    25
100
AcDbVertex
100
AcDb2dVertex
 10
201.6121554400484
 20
1391.560366134315
 30
0.0
  0
VERTEX
  5
87
330
85
100
AcDbEntity
  8
Layer 1
 62
     7
370
    25
100
AcDbVertex
100
AcDb2dVertex
 10
206.9038221053921
 20
1384.504982835297
 30
0.0
  0
SEQEND
  5
88
330
85
100
AcDbEntity
  8
Layer 1
370
    25
  0
POLYLINE
  5
89
330
3C
100
AcDbEntity
  8
Layer 1
 62
     7
370
    25
100
AcDb2dPolyline
 66
     1
 10
0.0
 20
0.0
 30
0.0
  0
VERTEX
  5
8A
330
89
100
AcDbEntity
  8
Layer 1
 62
     7
370
    25
100
AcDbVertex
100
AcDb2dVertex
 10
206.9038221053921
 20
1384.504982835297
 30
0.0
  0
VERTEX
  5
8B
330
89
100
AcDbEntity
  8
Layer 1
 62
     7
370
    25
100
AcDbVertex
100
AcDb2dVertex
 10
217.4873276908539
 20
1384.504982835297
 30
0.0
  0
SEQEND
  5
8C
330
89
100
AcDbEntity
  8
Layer 1
370
    25
  0
POLYLINE
  5
8D
330
3C
100
AcDbEntity
  8
Layer 1
 62
     7
370
    25
100
AcDb2dPolyline
 66
     1
 10
0.0
 20
0.0
 30
0.0
  0
VERTEX
  5
8E
330
8D
100
AcDbEntity
  8
Layer 1
 62
     7
370
    25
100
AcDbVertex
100
AcDb2dVertex
 10
217.4873276908539
 20
1384.504982835297
 30
0.0
  0
VERTEX
  5
8F
330
8D
100
AcDbEntity
  8
Layer 1
 62
     7
370
    25
100
AcDbVertex
100
AcDb2dVertex
 10
222.7789943561976
 20
1391.560366134315
 30
0.0
  0
SEQEND
  5
90
330
8D
100
AcDbEntity
  8
Layer 1
370
    25
  0
POLYLINE
  5
91
330
3C
100
AcDbEntity
  8
Layer 1
 62
     7
370
    25
100
AcDb2dPolyline
 66
     1
 10
0.0
 20
0.0
 30
0.0
  0
VERTEX
  5
92
330
91
100
AcDbEntity
  8
Layer 1
 62
     7
370
    25
100
AcDbVertex
100
AcDb2dVertex
 10
222.7789943561976
 20
1391.560366134315
 30
0.0
  0
VERTEX
  5
93
330
91
100
AcDbEntity
  8
Layer 1
 62
     7
370
    25
100
AcDbVertex
100
AcDb2dVertex
 10
222.7789943561976
 20
1405.671994006221
 30
0.0
  0
SEQEND
  5
94
330
91
100
AcDbEntity
  8
Layer 1
370
    25
  0
POLYLINE
  5
95
330
3C
100
AcDbEntity
  8
Layer 1
 62
     7
370
    25
100
AcDb2dPolyline
 66
     1
 10
0.0
 20
0.0
 30
0.0
  0
VERTEX
  5
96
330
95
100
AcDbEntity
  8
Layer 1
 62
     7
370
    25
100
AcDbVertex
100
AcDb2dVertex
 10
222.7789943561976
 20
1405.671994006221
 30
0.0
  0
VERTEX
  5
97
330
95
100
AcDbEntity
  8
Layer 1
 62
     7
370
    25
100
AcDbVertex
100
AcDb2dVertex
 10
217.4873276908539
 20
1412.727377305238
 30
0.0
  0
SEQEND
  5
98
330
95
100
AcDbEntity
  8
Layer 1
370
    25
  0
POLYLINE
  5
99
330
3C
100
AcDbEntity
  8
Layer 1
 62
     7
370
    25
100
AcDb2dPolyline
 66
     1
 10
0.0
 20
0.0
 30
0.0
  0
VERTEX
  5
9A
330
99
100
AcDbEntity
  8
Layer 1
 62
     7
370
    25
100
AcDbVertex
100
AcDb2dVertex
 10
217.4873276908539
 20
1412.727377305238
 30
0.0
  0
VERTEX
  5
9B
330
99
100
AcDbEntity
  8
Layer 1
 62
     7
370
    25
100
AcDbVertex
100
AcDb2dVertex
 10
201.6121554400484
 20
1412.727377305238
 30
0.0
  0
SEQEND
  5
9C
330
99
100
AcDbEntity
  8
Layer 1
370
    25
  0
POLYLINE
  5
9D
330
3C
100
AcDbEntity
  8
Layer 1
 62
     7
370
    25
100
AcDb2dPolyline
 66
     1
 10
0.0
 20
0.0
 30
0.0
  0
VERTEX
  5
9E
330
9D
100
AcDbEntity
  8
Layer 1
 62
     7
370
    25
100
AcDbVertex
100
AcDb2dVertex
 10
201.6121554400484
 20
1412.727377305238
 30
0.0
  0
VERTEX
  5
9F
330
9D
100
AcDbEntity
  8
Layer 1
 62
     7
370
    25
100
AcDbVertex
100
AcDb2dVertex
 10
201.6121554400484
 20
1426.838488412822
 30
0.0
  0
SEQEND
  5
A0
330
9D
100
AcDbEntity
  8
Layer 1
370
    25
  0
POLYLINE
  5
A1
330
3C
100
AcDbEntity
  8
Layer 1
 62
     7
370
    25
100
AcDb2dPolyline
 66
     1
 10
0.0
 20
0.0
 30
0.0
  0
VERTEX
  5
A2
330
A1
100
AcDbEntity
  8
Layer 1
 62
     7
370
    25
100
AcDbVertex
100
AcDb2dVertex
 10
201.6121554400484
 20
1426.838488412822
 30
0.0
  0
VERTEX
  5
A3
330
A1
100
AcDbEntity
  8
Layer 1
 62
     7
370
    25
100
AcDbVertex
100
AcDb2dVertex
 10
222.7789943561976
 20
1426.838488412822
 30
0.0
  0
SEQEND
  5
A4
330
A1
100
AcDbEntity
  8
Layer 1
370
    25
  0
POLYLINE
  5
A5
330
3C
100
AcDbEntity
  8
Layer 1
 62
     7
370
    25
100
AcDb2dPolyline
 66
     1
 10
0.0
 20
0.0
 30
0.0
  0
VERTEX
  5
A6
330
A5
100
AcDbEntity
  8
Layer 1
 62
     7
370
    25
100
AcDbVertex
100
AcDb2dVertex
 10
233.3623276868851
 20
1419.782588349482
 30
0.0
  0
VERTEX
  5
A7
330
A5
100
AcDbEntity
  8
Layer 1
 62
     7
370
    25
100
AcDbVertex
100
AcDb2dVertex
 10
238.6533053331318
 20
1426.838488412822
 30
0.0
  0
SEQEND
  5
A8
330
A5
100
AcDbEntity
  8
Layer 1
370
    25
  0
POLYLINE
  5
A9
330
3C
100
AcDbEntity
  8
Layer 1
 62
     7
370
    25
100
AcDb2dPolyline
 66
     1
 10
0.0
 20
0.0
 30
0.0
  0
VERTEX
  5
AA
330
A9
100
AcDbEntity
  8
Layer 1
 62
     7
370
    25
100
AcDbVertex
100
AcDb2dVertex
 10
238.6533053331318
 20
1426.838488412822
 30
0.0
  0
VERTEX
  5
AB
330
A9
100
AcDbEntity
  8
Layer 1
 62
     7
370
    25
100
AcDbVertex
100
AcDb2dVertex
 10
249.2366386638193
 20
1426.838488412822
 30
0.0
  0
SEQEND
  5
AC
330
A9
100
AcDbEntity
  8
Layer 1
370
    25
  0
POLYLINE
  5
AD
330
3C
100
AcDbEntity
  8
Layer 1
 62
     7
370
    25
100
AcDb2dPolyline
 66
     1
 10
0.0
 20
0.0
 30
0.0
  0
VERTEX
  5
AE
330
AD
100
AcDbEntity
  8
Layer 1
 62
     7
370
    25
100
AcDbVertex
100
AcDb2dVertex
 10
249.2366386638193
 20
1426.838488412822
 30
0.0
  0
VERTEX
  5
AF
330
AD
100
AcDbEntity
  8
Layer 1
 62
     7
370
    25
100
AcDbVertex
100
AcDb2dVertex
 10
254.5283053291631
 20
1419.782588349482
 30
0.0
  0
SEQEND
  5
B0
330
AD
100
AcDbEntity
  8
Layer 1
370
    25
  0
POLYLINE
  5
B1
330
3C
100
AcDbEntity
  8
Layer 1
 62
     7
370
    25
100
AcDb2dPolyline
 66
     1
 10
0.0
 20
0.0
 30
0.0
  0
VERTEX
  5
B2
330
B1
100
AcDbEntity
  8
Layer 1
 62
     7
370
    25
100
AcDbVertex
100
AcDb2dVertex
 10
254.5283053291631
 20
1419.782588349482
 30
0.0
  0
VERTEX
  5
B3
330
B1
100
AcDbEntity
  8
Layer 1
 62
     7
370
    25
100
AcDbVertex
100
AcDb2dVertex
 10
254.5283053291631
 20
1412.727377305238
 30
0.0
  0
SEQEND
  5
B4
330
B1
100
AcDbEntity
  8
Layer 1
370
    25
  0
POLYLINE
  5
B5
330
3C
100
AcDbEntity
  8
Layer 1
 62
     7
370
    25
100
AcDb2dPolyline
 66
     1
 10
0.0
 20
0.0
 30
0.0
  0
VERTEX
  5
B6
330
B5
100
AcDbEntity
  8
Layer 1
 62
     7
370
    25
100
AcDbVertex
100
AcDb2dVertex
 10
254.5283053291631
 20
1412.727377305238
 30
0.0
  0
VERTEX
  5
B7
330
B5
100
AcDbEntity
  8
Layer 1
 62
     7
370
    25
100
AcDbVertex
100
AcDb2dVertex
 10
249.2366386638193
 20
1405.671994006221
 30
0.0
  0
SEQEND
  5
B8
330
B5
100
AcDbEntity
  8
Layer 1
370
    25
  0
POLYLINE
  5
B9
330
3C
100
AcDbEntity
  8
Layer 1
 62
     7
370
    25
100
AcDb2dPolyline
 66
     1
 10
0.0
 20
0.0
 30
0.0
  0
VERTEX
  5
BA
330
B9
100
AcDbEntity
  8
Layer 1
 62
     7
370
    25
100
AcDbVertex
100
AcDb2dVertex
 10
249.2366386638193
 20
1405.671994006221
 30
0.0
  0
VERTEX
  5
BB
330
B9
100
AcDbEntity
  8
Layer 1
 62
     7
370
    25
100
AcDbVertex
100
AcDb2dVertex
 10
238.6533053331318
 20
1405.671994006221
 30
0.0
  0
SEQEND
  5
BC
330
B9
100
AcDbEntity
  8
Layer 1
370
    25
  0
POLYLINE
  5
BD
330
3C
100
AcDbEntity
  8
Layer 1
 62
     7
370
    25
100
AcDb2dPolyline
 66
     1
 10
0.0
 20
0.0
 30
0.0
  0
VERTEX
  5
BE
330
BD
100
AcDbEntity
  8
Layer 1
 62
     7
370
    25
100
AcDbVertex
100
AcDb2dVertex
 10
238.6533053331318
 20
1405.671994006221
 30
0.0
  0
VERTEX
  5
BF
330
BD
100
AcDbEntity
  8
Layer 1
 62
     7
370
    25
100
AcDbVertex
100
AcDb2dVertex
 10
233.3623276868851
 20
1398.616266197655
 30
0.0
  0
SEQEND
  5
C0
330
BD
100
AcDbEntity
  8
Layer 1
370
    25
  0
POLYLINE
  5
C1
330
3C
100
AcDbEntity
  8
Layer 1
 62
     7
370
    25
100
AcDb2dPolyline
 66
     1
 10
0.0
 20
0.0
 30
0.0
  0
VERTEX
  5
C2
330
C1
100
AcDbEntity
  8
Layer 1
 62
     7
370
    25
100
AcDbVertex
100
AcDb2dVertex
 10
233.3623276868851
 20
1398.616266197655
 30
0.0
  0
VERTEX
  5
C3
330
C1
100
AcDbEntity
  8
Layer 1
 62
     7
370
    25
100
AcDbVertex
100
AcDb2dVertex
 10
233.3623276868851
 20
1384.504982835297
 30
0.0
  0
SEQEND
  5
C4
330
C1
100
AcDbEntity
  8
Layer 1
370
    25
  0
POLYLINE
  5
C5
330
3C
100
AcDbEntity
  8
Layer 1
 62
     7
370
    25
100
AcDb2dPolyline
 66
     1
 10
0.0
 20
0.0
 30
0.0
  0
VERTEX
  5
C6
330
C5
100
AcDbEntity
  8
Layer 1
 62
     7
370
    25
100
AcDbVertex
100
AcDb2dVertex
 10
233.3623276868851
 20
1384.504982835297
 30
0.0
  0
VERTEX
  5
C7
330
C5
100
AcDbEntity
  8
Layer 1
 62
     7
370
    25
100
AcDbVertex
100
AcDb2dVertex
 10
254.5283053291631
 20
1384.504982835297
 30
0.0
  0
SEQEND
  5
C8
330
C5
100
AcDbEntity
  8
Layer 1
370
    25
  0
POLYLINE
  5
C9
330
3C
100
AcDbEntity
  8
Layer 1
 62
     7
370
    25
100
AcDb2dPolyline
 66
     1
 10
0.0
 20
0.0
 30
0.0
  0
VERTEX
  5
CA
330
C9
100
AcDbEntity
  8
Layer 1
 62
     7
370
    25
100
AcDbVertex
100
AcDb2dVertex
 10
270.4036498347429
 20
1384.504982835297
 30
0.0
  0
VERTEX
  5
CB
330
C9
100
AcDbEntity
  8
Layer 1
 62
     7
370
    25
100
AcDbVertex
100
AcDb2dVertex
 10
265.1119831693991
 20
1391.560366134315
 30
0.0
  0
SEQEND
  5
CC
330
C9
100
AcDbEntity
  8
Layer 1
370
    25
  0
POLYLINE
  5
CD
330
3C
100
AcDbEntity
  8
Layer 1
 62
     7
370
    25
100
AcDb2dPolyline
 66
     1
 10
0.0
 20
0.0
 30
0.0
  0
VERTEX
  5
CE
330
CD
100
AcDbEntity
  8
Layer 1
 62
     7
370
    25
100
AcDbVertex
100
AcDb2dVertex
 10
265.1119831693991
 20
1391.560366134315
 30
0.0
  0
VERTEX
  5
CF
330
CD
100
AcDbEntity
  8
Layer 1
 62
     7
370
    25
100
AcDbVertex
100
AcDb2dVertex
 10
265.1119831693991
 20
1419.782588349482
 30
0.0
  0
SEQEND
  5
D0
330
CD
100
AcDbEntity
  8
Layer 1
370
    25
  0
POLYLINE
  5
D1
330
3C
100
AcDbEntity
  8
Layer 1
 62
     7
370
    25
100
AcDb2dPolyline
 66
     1
 10
0.0
 20
0.0
 30
0.0
  0
VERTEX
  5
D2
330
D1
100
AcDbEntity
  8
Layer 1
 62
     7
370
    25
100
AcDbVertex
100
AcDb2dVertex
 10
265.1119831693991
 20
1419.782588349482
 30
0.0
  0
VERTEX
  5
D3
330
D1
100
AcDbEntity
  8
Layer 1
 62
     7
370
    25
100
AcDbVertex
100
AcDb2dVertex
 10
270.4036498347429
 20
1426.838488412822
 30
0.0
  0
SEQEND
  5
D4
330
D1
100
AcDbEntity
  8
Layer 1
370
    25
  0
POLYLINE
  5
D5
330
3C
100
AcDbEntity
  8
Layer 1
 62
     7
370
    25
100
AcDb2dPolyline
 66
     1
 10
0.0
 20
0.0
 30
0.0
  0
VERTEX
  5
D6
330
D5
100
AcDbEntity
  8
Layer 1
 62
     7
370
    25
100
AcDbVertex
100
AcDb2dVertex
 10
270.4036498347429
 20
1426.838488412822
 30
0.0
  0
VERTEX
  5
D7
330
D5
100
AcDbEntity
  8
Layer 1
 62
     7
370
    25
100
AcDbVertex
100
AcDb2dVertex
 10
275.6953165000866
 20
1426.838488412822
 30
0.0
  0
SEQEND
  5
D8
330
D5
100
AcDbEntity
  8
Layer 1
370
    25
  0
POLYLINE
  5
D9
330
3C
100
AcDbEntity
  8
Layer 1
 62
     7
370
    25
100
AcDb2dPolyline
 66
     1
 10
0.0
 20
0.0
 30
0.0
  0
VERTEX
  5
DA
330
D9
100
AcDbEntity
  8
Layer 1
 62
     7
370
    25
100
AcDbVertex
100
AcDb2dVertex
 10
275.6953165000866
 20
1426.838488412822
 30
0.0
  0
VERTEX
  5
DB
330
D9
100
AcDbEntity
  8
Layer 1
 62
     7
370
    25
100
AcDbVertex
100
AcDb2dVertex
 10
280.9869831654303
 20
1419.782588349482
 30
0.0
  0
SEQEND
  5
DC
330
D9
100
AcDbEntity
  8
Layer 1
370
    25
  0
POLYLINE
  5
DD
330
3C
100
AcDbEntity
  8
Layer 1
 62
     7
370
    25
100
AcDb2dPolyline
 66
     1
 10
0.0
 20
0.0
 30
0.0
  0
VERTEX
  5
DE
330
DD
100
AcDbEntity
  8
Layer 1
 62
     7
370
    25
100
AcDbVertex
100
AcDb2dVertex
 10
280.9869831654303
 20
1419.782588349482
 30
0.0
  0
VERTEX
  5
DF
330
DD
100
AcDbEntity
  8
Layer 1
 62
     7
370
    25
100
AcDbVertex
100
AcDb2dVertex
 10
280.9869831654303
 20
1391.560366134315
 30
0.0
  0
SEQEND
  5
E0
330
DD
100
AcDbEntity
  8
Layer 1
370
    25
  0
POLYLINE
  5
E1
330
3C
100
AcDbEntity
  8
Layer 1
 62
     7
370
    25
100
AcDb2dPolyline
 66
     1
 10
0.0
 20
0.0
 30
0.0
  0
VERTEX
  5
E2
330
E1
100
AcDbEntity
  8
Layer 1
 62
     7
370
    25
100
AcDbVertex
100
AcDb2dVertex
 10
280.9869831654303
 20
1391.560366134315
 30
0.0
  0
VERTEX
  5
E3
330
E1
100
AcDbEntity
  8
Layer 1
 62
     7
370
    25
100
AcDbVertex
100
AcDb2dVertex
 10
275.6953165000866
 20
1384.504982835297
 30
0.0
  0
SEQEND
  5
E4
330
E1
100
AcDbEntity
  8
Layer 1
370
    25
  0
POLYLINE
  5
E5
330
3C
100
AcDbEntity
  8
Layer 1
 62
     7
370
    25
100
AcDb2dPolyline
 66
     1
 10
0.0
 20
0.0
 30
0.0
  0
VERTEX
  5
E6
330
E5
100
AcDbEntity
  8
Layer 1
 62
     7
370
    25
100
AcDbVertex
100
AcDb2dVertex
 10
275.6953165000866
 20
1384.504982835297
 30
0.0
  0
VERTEX
  5
E7
330
E5
100
AcDbEntity
  8
Layer 1
 62
     7
370
    25
100
AcDbVertex
100
AcDb2dVertex
 10
270.4036498347429
 20
1384.504982835297
 30
0.0
  0
SEQEND
  5
E8
330
E5
100
AcDbEntity
  8
Layer 1
370
    25
  0
POLYLINE
  5
E9
330
3C
100
AcDbEntity
  8
Layer 1
370
     0
100
AcDb2dPolyline
 66
     1
 10
0.0
 20
0.0
 30
0.0
  0
VERTEX
  5
EA
330
E9
100
AcDbEntity
  8
Layer 1
370
     0
100
AcDbVertex
100
AcDb2dVertex
 10
-219.7445542527896
 20
623.9012802259691
 30
0.0
  0
VERTEX
  5
EB
330
E9
100
AcDbEntity
  8
Layer 1
370
     0
100
AcDbVertex
100
AcDb2dVertex
 10
-224.7445935853069
 20
653.9011717115247
 30
0.0
  0
VERTEX
  5
EC
330
E9
100
AcDbEntity
  8
Layer 1
370
     0
100
AcDbVertex
100
AcDb2dVertex
 10
-214.7448594298207
 20
653.9011717115247
 30
0.0
  0
SEQEND
  5
ED
330
E9
100
AcDbEntity
  8
Layer 1
370
     0
  0
HATCH
  5
EE
330
3C
100
AcDbEntity
  8
Layer 1
 62
     7
100
AcDbHatch
 10
0.0
 20
0.0
 30
0.0
210
0.0
220
0.0
230
1.0
  2
SOLID
 70
     1
 71
     0
 91
        1
 92
        1
 93
        3
 72
     1
 10
-219.7445542527896
 20
623.9012802259691
 11
-224.7445935853069
 21
653.9011717115247
 72
     1
 10
-224.7445935853069
 20
653.9011717115247
 11
-214.7448594298207
 21
653.9011717115247
 72
     1
 10
-214.7448594298207
 20
653.9011717115247
 11
-219.7445542527896
 21
623.9012802259691
 97
        0
 75
     2
 76
     1
 98
        0
  0
POLYLINE
  5
EF
330
3C
100
AcDbEntity
  8
Layer 1
370
     0
100
AcDb2dPolyline
 66
     1
 10
0.0
 20
0.0
 30
0.0
  0
VERTEX
  5
F0
330
EF
100
AcDbEntity
  8
Layer 1
370
     0
100
AcDbVertex
100
AcDb2dVertex
 10
-219.7445542527896
 20
1133.900641263834
 30
0.0
  0
VERTEX
  5
F1
330
EF
100
AcDbEntity
  8
Layer 1
370
     0
100
AcDbVertex
100
AcDb2dVertex
 10
-214.7448594298207
 20
1103.900749778278
 30
0.0
  0
VERTEX
  5
F2
330
EF
100
AcDbEntity
  8
Layer 1
370
     0
100
AcDbVertex
100
AcDb2dVertex
 10
-224.7445935853069
 20
1103.900749778278
 30
0.0
  0
SEQEND
  5
F3
330
EF
100
AcDbEntity
  8
Layer 1
370
     0
  0
HATCH
  5
F4
330
3C
100
AcDbEntity
  8
Layer 1
 62
     7
100
AcDbHatch
 10
0.0
 20
0.0
 30
0.0
210
0.0
220
0.0
230
1.0
  2
SOLID
 70
     1
 71
     0
 91
        1
 92
        1
 93
        3
 72
     1
 10
-219.7445542527896
 20
1133.900641263834
 11
-214.7448594298207
 21
1103.900749778278
 72
     1
 10
-214.7448594298207
 20
1103.900749778278
 11
-224.7445935853069
 21
1103.900749778278
 72
     1
 10
-224.7445935853069
 20
1103.900749778278
 11
-219.7445542527896
 21
1133.900641263834
 97
        0
 75
     2
 76
     1
 98
        0
  0
POLYLINE
  5
F5
330
3C
100
AcDbEntity
  8
Layer 1
 62
     7
370
    25
100
AcDb2dPolyline
 66
     1
 10
0.0
 20
0.0
 30
0.0
  0
VERTEX
  5
F6
330
F5
100
AcDbEntity
  8
Layer 1
 62
     7
370
    25
100
AcDbVertex
100
AcDb2dVertex
 10
15.25505506346054
 20
623.9012802259691
 30
0.0
  0
VERTEX
  5
F7
330
F5
100
AcDbEntity
  8
Layer 1
 62
     7
370
    25
100
AcDbVertex
100
AcDb2dVertex
 10
-229.74446066305
 20
623.9012802259691
 30
0.0
  0
SEQEND
  5
F8
330
F5
100
AcDbEntity
  8
Layer 1
370
    25
  0
POLYLINE
  5
F9
330
3C
100
AcDbEntity
  8
Layer 1
 62
     7
370
    25
100
AcDb2dPolyline
 66
     1
 10
0.0
 20
0.0
 30
0.0
  0
VERTEX
  5
FA
330
F9
100
AcDbEntity
  8
Layer 1
 62
     7
370
    25
100
AcDbVertex
100
AcDb2dVertex
 10
-41.13616264162568
 20
1133.900641263834
 30
0.0
  0
VERTEX
  5
FB
330
F9
100
AcDbEntity
  8
Layer 1
 62
     7
370
    25
100
AcDbVertex
100
AcDb2dVertex
 10
-229.74446066305
 20
1133.900641263834
 30
0.0
  0
SEQEND
  5
FC
330
F9
100
AcDbEntity
  8
Layer 1
370
    25
  0
POLYLINE
  5
FD
330
3C
100
AcDbEntity
  8
Layer 1
 62
     7
370
    25
100
AcDb2dPolyline
 66
     1
 10
0.0
 20
0.0
 30
0.0
  0
VERTEX
  5
FE
330
FD
100
AcDbEntity
  8
Layer 1
 62
     7
370
    25
100
AcDbVertex
100
AcDb2dVertex
 10
-219.7445542527896
 20
623.9012802259691
 30
0.0
  0
VERTEX
  5
FF
330
FD
100
AcDbEntity
  8
Layer 1
 62
     7
370
    25
100
AcDbVertex
100
AcDb2dVertex
 10
-219.7445542527896
 20
1133.900641263834
 30
0.0
  0
SEQEND
  5
100
330
FD
100
AcDbEntity
  8
Layer 1
370
    25
  0
POLYLINE
  5
101
330
3C
100
AcDbEntity
  8
Layer 1
 62
     7
370
    25
100
AcDb2dPolyline
 66
     1
 10
0.0
 20
0.0
 30
0.0
  0
VERTEX
  5
102
330
101
100
AcDbEntity
  8
Layer 1
 62
     7
370
    25
100
AcDbVertex
100
AcDb2dVertex
 10
-239.0376057345114
 20
814.8129690888316
 30
0.0
  0
VERTEX
  5
103
330
101
100
AcDbEntity
  8
Layer 1
 62
     7
370
    25
100
AcDbVertex
100
AcDb2dVertex
 10
-231.9818779259455
 20
820.1048080089495
 30
0.0
  0
SEQEND
  5
104
330
101
100
AcDbEntity
  8
Layer 1
370
    25
  0
POLYLINE
  5
105
330
3C
100
AcDbEntity
  8
Layer 1
 62
     7
370
    25
100
AcDb2dPolyline
 66
     1
 10
0.0
 20
0.0
 30
0.0
  0
VERTEX
  5
106
330
105
100
AcDbEntity
  8
Layer 1
 62
     7
370
    25
100
AcDbVertex
100
AcDb2dVertex
 10
-231.9818779259455
 20
820.1048080089495
 30
0.0
  0
VERTEX
  5
107
330
105
100
AcDbEntity
  8
Layer 1
 62
     7
370
    25
100
AcDbVertex
100
AcDb2dVertex
 10
-231.9818779259455
 20
830.6877968300885
 30
0.0
  0
SEQEND
  5
108
330
105
100
AcDbEntity
  8
Layer 1
370
    25
  0
POLYLINE
  5
109
330
3C
100
AcDbEntity
  8
Layer 1
 62
     7
370
    25
100
AcDb2dPolyline
 66
     1
 10
0.0
 20
0.0
 30
0.0
  0
VERTEX
  5
10A
330
109
100
AcDbEntity
  8
Layer 1
 62
     7
370
    25
100
AcDbVertex
100
AcDb2dVertex
 10
-231.9818779259455
 20
830.6877968300885
 30
0.0
  0
VERTEX
  5
10B
330
109
100
AcDbEntity
  8
Layer 1
 62
     7
370
    25
100
AcDbVertex
100
AcDb2dVertex
 10
-239.0376057345114
 20
835.9794634954322
 30
0.0
  0
SEQEND
  5
10C
330
109
100
AcDbEntity
  8
Layer 1
370
    25
  0
POLYLINE
  5
10D
330
3C
100
AcDbEntity
  8
Layer 1
 62
     7
370
    25
100
AcDb2dPolyline
 66
     1
 10
0.0
 20
0.0
 30
0.0
  0
VERTEX
  5
10E
330
10D
100
AcDbEntity
  8
Layer 1
 62
     7
370
    25
100
AcDbVertex
100
AcDb2dVertex
 10
-239.0376057345114
 20
835.9794634954322
 30
0.0
  0
VERTEX
  5
10F
330
10D
100
AcDbEntity
  8
Layer 1
 62
     7
370
    25
100
AcDbVertex
100
AcDb2dVertex
 10
-253.148200077772
 20
835.9794634954322
 30
0.0
  0
SEQEND
  5
110
330
10D
100
AcDbEntity
  8
Layer 1
370
    25
  0
POLYLINE
  5
111
330
3C
100
AcDbEntity
  8
Layer 1
 62
     7
370
    25
100
AcDb2dPolyline
 66
     1
 10
0.0
 20
0.0
 30
0.0
  0
VERTEX
  5
112
330
111
100
AcDbEntity
  8
Layer 1
 62
     7
370
    25
100
AcDbVertex
100
AcDb2dVertex
 10
-253.148200077772
 20
835.9794634954322
 30
0.0
  0
VERTEX
  5
113
330
111
100
AcDbEntity
  8
Layer 1
 62
     7
370
    25
100
AcDbVertex
100
AcDb2dVertex
 10
-260.2041001411122
 20
830.6877968300885
 30
0.0
  0
SEQEND
  5
114
330
111
100
AcDbEntity
  8
Layer 1
370
    25
  0
POLYLINE
  5
115
330
3C
100
AcDbEntity
  8
Layer 1
 62
     7
370
    25
100
AcDb2dPolyline
 66
     1
 10
0.0
 20
0.0
 30
0.0
  0
VERTEX
  5
116
330
115
100
AcDbEntity
  8
Layer 1
 62
     7
370
    25
100
AcDbVertex
100
AcDb2dVertex
 10
-260.2041001411122
 20
830.6877968300885
 30
0.0
  0
VERTEX
  5
117
330
115
100
AcDbEntity
  8
Layer 1
 62
     7
370
    25
100
AcDbVertex
100
AcDb2dVertex
 10
-260.2041001411122
 20
814.8129690888316
 30
0.0
  0
SEQEND
  5
118
330
115
100
AcDbEntity
  8
Layer 1
370
    25
  0
POLYLINE
  5
119
330
3C
100
AcDbEntity
  8
Layer 1
 62
     7
370
    25
100
AcDb2dPolyline
 66
     1
 10
0.0
 20
0.0
 30
0.0
  0
VERTEX
  5
11A
330
119
100
AcDbEntity
  8
Layer 1
 62
     7
370
    25
100
AcDbVertex
100
AcDb2dVertex
 10
-260.2041001411122
 20
814.8129690888316
 30
0.0
  0
VERTEX
  5
11B
330
119
100
AcDbEntity
  8
Layer 1
 62
     7
370
    25
100
AcDbVertex
100
AcDb2dVertex
 10
-274.3152112486955
 20
814.8129690888316
 30
0.0
  0
SEQEND
  5
11C
330
119
100
AcDbEntity
  8
Layer 1
370
    25
  0
POLYLINE
  5
11D
330
3C
100
AcDbEntity
  8
Layer 1
 62
     7
370
    25
100
AcDb2dPolyline
 66
     1
 10
0.0
 20
0.0
 30
0.0
  0
VERTEX
  5
11E
330
11D
100
AcDbEntity
  8
Layer 1
 62
     7
370
    25
100
AcDbVertex
100
AcDb2dVertex
 10
-274.3152112486955
 20
814.8129690888316
 30
0.0
  0
VERTEX
  5
11F
330
11D
100
AcDbEntity
  8
Layer 1
 62
     7
370
    25
100
AcDbVertex
100
AcDb2dVertex
 10
-274.3152112486955
 20
835.9794634954322
 30
0.0
  0
SEQEND
  5
120
330
11D
100
AcDbEntity
  8
Layer 1
370
    25
  0
POLYLINE
  5
121
330
3C
100
AcDbEntity
  8
Layer 1
 62
     7
370
    25
100
AcDb2dPolyline
 66
     1
 10
0.0
 20
0.0
 30
0.0
  0
VERTEX
  5
122
330
121
100
AcDbEntity
  8
Layer 1
 62
     7
370
    25
100
AcDbVertex
100
AcDb2dVertex
 10
-231.9818779259455
 20
846.562969080894
 30
0.0
  0
VERTEX
  5
123
330
121
100
AcDbEntity
  8
Layer 1
 62
     7
370
    25
100
AcDbVertex
100
AcDb2dVertex
 10
-231.9818779259455
 20
857.1463024115815
 30
0.0
  0
SEQEND
  5
124
330
121
100
AcDbEntity
  8
Layer 1
370
    25
  0
POLYLINE
  5
125
330
3C
100
AcDbEntity
  8
Layer 1
 62
     7
370
    25
100
AcDb2dPolyline
 66
     1
 10
0.0
 20
0.0
 30
0.0
  0
VERTEX
  5
126
330
125
100
AcDbEntity
  8
Layer 1
 62
     7
370
    25
100
AcDbVertex
100
AcDb2dVertex
 10
-231.9818779259455
 20
851.8546357462378
 30
0.0
  0
VERTEX
  5
127
330
125
100
AcDbEntity
  8
Layer 1
 62
     7
370
    25
100
AcDbVertex
100
AcDb2dVertex
 10
-274.3152112486955
 20
851.8546357462378
 30
0.0
  0
SEQEND
  5
128
330
125
100
AcDbEntity
  8
Layer 1
370
    25
  0
POLYLINE
  5
129
330
3C
100
AcDbEntity
  8
Layer 1
 62
     7
370
    25
100
AcDb2dPolyline
 66
     1
 10
0.0
 20
0.0
 30
0.0
  0
VERTEX
  5
12A
330
129
100
AcDbEntity
  8
Layer 1
 62
     7
370
    25
100
AcDbVertex
100
AcDb2dVertex
 10
-274.3152112486955
 20
851.8546357462378
 30
0.0
  0
VERTEX
  5
12B
330
129
100
AcDbEntity
  8
Layer 1
 62
     7
370
    25
100
AcDbVertex
100
AcDb2dVertex
 10
-267.2598279496781
 20
846.562969080894
 30
0.0
  0
SEQEND
  5
12C
330
129
100
AcDbEntity
  8
Layer 1
370
    25
  0
POLYLINE
  5
12D
330
3C
100
AcDbEntity
  8
Layer 1
 62
     7
370
    25
100
AcDb2dPolyline
 66
     1
 10
0.0
 20
0.0
 30
0.0
  0
VERTEX
  5
12E
330
12D
100
AcDbEntity
  8
Layer 1
 62
     7
370
    25
100
AcDbVertex
100
AcDb2dVertex
 10
-231.9818779259455
 20
873.0211301528385
 30
0.0
  0
VERTEX
  5
12F
330
12D
100
AcDbEntity
  8
Layer 1
 62
     7
370
    25
100
AcDbVertex
100
AcDb2dVertex
 10
-239.0376057345114
 20
867.7298079970433
 30
0.0
  0
SEQEND
  5
130
330
12D
100
AcDbEntity
  8
Layer 1
370
    25
  0
POLYLINE
  5
131
330
3C
100
AcDbEntity
  8
Layer 1
 62
     7
370
    25
100
AcDb2dPolyline
 66
     1
 10
0.0
 20
0.0
 30
0.0
  0
VERTEX
  5
132
330
131
100
AcDbEntity
  8
Layer 1
 62
     7
370
    25
100
AcDbVertex
100
AcDb2dVertex
 10
-239.0376057345114
 20
867.7298079970433
 30
0.0
  0
VERTEX
  5
133
330
131
100
AcDbEntity
  8
Layer 1
 62
     7
370
    25
100
AcDbVertex
100
AcDb2dVertex
 10
-267.2598279496781
 20
867.7298079970433
 30
0.0
  0
SEQEND
  5
134
330
131
100
AcDbEntity
  8
Layer 1
370
    25
  0
POLYLINE
  5
135
330
3C
100
AcDbEntity
  8
Layer 1
 62
     7
370
    25
100
AcDb2dPolyline
 66
     1
 10
0.0
 20
0.0
 30
0.0
  0
VERTEX
  5
136
330
135
100
AcDbEntity
  8
Layer 1
 62
     7
370
    25
100
AcDbVertex
100
AcDb2dVertex
 10
-267.2598279496781
 20
867.7298079970433
 30
0.0
  0
VERTEX
  5
137
330
135
100
AcDbEntity
  8
Layer 1
 62
     7
370
    25
100
AcDbVertex
100
AcDb2dVertex
 10
-274.3152112486955
 20
873.0211301528385
 30
0.0
  0
SEQEND
  5
138
330
135
100
AcDbEntity
  8
Layer 1
370
    25
  0
POLYLINE
  5
139
330
3C
100
AcDbEntity
  8
Layer 1
 62
     7
370
    25
100
AcDb2dPolyline
 66
     1
 10
0.0
 20
0.0
 30
0.0
  0
VERTEX
  5
13A
330
139
100
AcDbEntity
  8
Layer 1
 62
     7
370
    25
100
AcDbVertex
100
AcDb2dVertex
 10
-274.3152112486955
 20
873.0211301528385
 30
0.0
  0
VERTEX
  5
13B
330
139
100
AcDbEntity
  8
Layer 1
 62
     7
370
    25
100
AcDbVertex
100
AcDb2dVertex
 10
-274.3152112486955
 20
878.3127968181823
 30
0.0
  0
SEQEND
  5
13C
330
139
100
AcDbEntity
  8
Layer 1
370
    25
  0
POLYLINE
  5
13D
330
3C
100
AcDbEntity
  8
Layer 1
 62
     7
370
    25
100
AcDb2dPolyline
 66
     1
 10
0.0
 20
0.0
 30
0.0
  0
VERTEX
  5
13E
330
13D
100
AcDbEntity
  8
Layer 1
 62
     7
370
    25
100
AcDbVertex
100
AcDb2dVertex
 10
-274.3152112486955
 20
878.3127968181823
 30
0.0
  0
VERTEX
  5
13F
330
13D
100
AcDbEntity
  8
Layer 1
 62
     7
370
    25
100
AcDbVertex
100
AcDb2dVertex
 10
-267.2598279496781
 20
883.6046357383003
 30
0.0
  0
SEQEND
  5
140
330
13D
100
AcDbEntity
  8
Layer 1
370
    25
  0
POLYLINE
  5
141
330
3C
100
AcDbEntity
  8
Layer 1
 62
     7
370
    25
100
AcDb2dPolyline
 66
     1
 10
0.0
 20
0.0
 30
0.0
  0
VERTEX
  5
142
330
141
100
AcDbEntity
  8
Layer 1
 62
     7
370
    25
100
AcDbVertex
100
AcDb2dVertex
 10
-267.2598279496781
 20
883.6046357383003
 30
0.0
  0
VERTEX
  5
143
330
141
100
AcDbEntity
  8
Layer 1
 62
     7
370
    25
100
AcDbVertex
100
AcDb2dVertex
 10
-239.0376057345114
 20
883.6046357383003
 30
0.0
  0
SEQEND
  5
144
330
141
100
AcDbEntity
  8
Layer 1
370
    25
  0
POLYLINE
  5
145
330
3C
100
AcDbEntity
  8
Layer 1
 62
     7
370
    25
100
AcDb2dPolyline
 66
     1
 10
0.0
 20
0.0
 30
0.0
  0
VERTEX
  5
146
330
145
100
AcDbEntity
  8
Layer 1
 62
     7
370
    25
100
AcDbVertex
100
AcDb2dVertex
 10
-239.0376057345114
 20
883.6046357383003
 30
0.0
  0
VERTEX
  5
147
330
145
100
AcDbEntity
  8
Layer 1
 62
     7
370
    25
100
AcDbVertex
100
AcDb2dVertex
 10
-231.9818779259455
 20
878.3127968181823
 30
0.0
  0
SEQEND
  5
148
330
145
100
AcDbEntity
  8
Layer 1
370
    25
  0
POLYLINE
  5
149
330
3C
100
AcDbEntity
  8
Layer 1
 62
     7
370
    25
100
AcDb2dPolyline
 66
     1
 10
0.0
 20
0.0
 30
0.0
  0
VERTEX
  5
14A
330
149
100
AcDbEntity
  8
Layer 1
 62
     7
370
    25
100
AcDbVertex
100
AcDb2dVertex
 10
-231.9818779259455
 20
878.3127968181823
 30
0.0
  0
VERTEX
  5
14B
330
149
100
AcDbEntity
  8
Layer 1
 62
     7
370
    25
100
AcDbVertex
100
AcDb2dVertex
 10
-231.9818779259455
 20
873.0211301528385
 30
0.0
  0
SEQEND
  5
14C
330
149
100
AcDbEntity
  8
Layer 1
370
    25
  0
POLYLINE
  5
14D
330
3C
100
AcDbEntity
  8
Layer 1
370
     0
100
AcDb2dPolyline
 66
     1
 10
0.0
 20
0.0
 30
0.0
  0
VERTEX
  5
14E
330
14D
100
AcDbEntity
  8
Layer 1
370
     0
100
AcDbVertex
100
AcDb2dVertex
 10
680.2544296259433
 20
1053.900528707879
 30
0.0
  0
VERTEX
  5
14F
330
14D
100
AcDbEntity
  8
Layer 1
370
     0
100
AcDbVertex
100
AcDb2dVertex
 10
685.254641213235
 20
1023.900981731872
 30
0.0
  0
VERTEX
  5
150
330
14D
100
AcDbEntity
  8
Layer 1
370
     0
100
AcDbVertex
100
AcDb2dVertex
 10
675.2542180386517
 20
1023.900981731872
 30
0.0
  0
SEQEND
  5
151
330
14D
100
AcDbEntity
  8
Layer 1
370
     0
  0
HATCH
  5
152
330
3C
100
AcDbEntity
  8
Layer 1
 62
     7
100
AcDbHatch
 10
0.0
 20
0.0
 30
0.0
210
0.0
220
0.0
230
1.0
  2
SOLID
 70
     1
 71
     0
 91
        1
 92
        1
 93
        3
 72
     1
 10
680.2544296259433
 20
1053.900528707879
 11
685.254641213235
 21
1023.900981731872
 72
     1
 10
685.254641213235
 20
1023.900981731872
 11
675.2542180386517
 21
1023.900981731872
 72
     1
 10
675.2542180386517
 20
1023.900981731872
 11
680.2544296259433
 21
1053.900528707879
 97
        0
 75
     2
 76
     1
 98
        0
  0
POLYLINE
  5
153
330
3C
100
AcDbEntity
  8
Layer 1
370
     0
100
AcDb2dPolyline
 66
     1
 10
0.0
 20
0.0
 30
0.0
  0
VERTEX
  5
154
330
153
100
AcDbEntity
  8
Layer 1
370
     0
100
AcDbVertex
100
AcDb2dVertex
 10
680.2544296259433
 20
648.9013046337816
 30
0.0
  0
VERTEX
  5
155
330
153
100
AcDbEntity
  8
Layer 1
370
     0
100
AcDbVertex
100
AcDb2dVertex
 10
675.2542180386517
 20
678.9011961193372
 30
0.0
  0
VERTEX
  5
156
330
153
100
AcDbEntity
  8
Layer 1
370
     0
100
AcDbVertex
100
AcDb2dVertex
 10
685.254641213235
 20
678.9011961193372
 30
0.0
  0
SEQEND
  5
157
330
153
100
AcDbEntity
  8
Layer 1
370
     0
  0
HATCH
  5
158
330
3C
100
AcDbEntity
  8
Layer 1
 62
     7
100
AcDbHatch
 10
0.0
 20
0.0
 30
0.0
210
0.0
220
0.0
230
1.0
  2
SOLID
 70
     1
 71
     0
 91
        1
 92
        1
 93
        3
 72
     1
 10
680.2544296259433
 20
648.9013046337816
 11
675.2542180386517
 21
678.9011961193372
 72
     1
 10
675.2542180386517
 20
678.9011961193372
 11
685.254641213235
 21
678.9011961193372
 72
     1
 10
685.254641213235
 20
678.9011961193372
 11
680.2544296259433
 21
648.9013046337816
 97
        0
 75
     2
 76
     1
 98
        0
  0
POLYLINE
  5
159
330
3C
100
AcDbEntity
  8
Layer 1
 62
     7
370
    25
100
AcDb2dPolyline
 66
     1
 10
0.0
 20
0.0
 30
0.0
  0
VERTEX
  5
15A
330
159
100
AcDbEntity
  8
Layer 1
 62
     7
370
    25
100
AcDbVertex
100
AcDb2dVertex
 10
560.4408988399246
 20
1053.900528707879
 30
0.0
  0
VERTEX
  5
15B
330
159
100
AcDbEntity
  8
Layer 1
 62
     7
370
    25
100
AcDbVertex
100
AcDb2dVertex
 10
690.2541637814295
 20
1053.900528707879
 30
0.0
  0
SEQEND
  5
15C
330
159
100
AcDbEntity
  8
Layer 1
370
    25
  0
POLYLINE
  5
15D
330
3C
100
AcDbEntity
  8
Layer 1
 62
     7
370
    25
100
AcDb2dPolyline
 66
     1
 10
0.0
 20
0.0
 30
0.0
  0
VERTEX
  5
15E
330
15D
100
AcDbEntity
  8
Layer 1
 62
     7
370
    25
100
AcDbVertex
100
AcDb2dVertex
 10
559.3929007933115
 20
648.9013046337816
 30
0.0
  0
VERTEX
  5
15F
330
15D
100
AcDbEntity
  8
Layer 1
 62
     7
370
    25
100
AcDbVertex
100
AcDb2dVertex
 10
690.2541637814295
 20
648.9013046337816
 30
0.0
  0
SEQEND
  5
160
330
15D
100
AcDbEntity
  8
Layer 1
370
    25
  0
POLYLINE
  5
161
330
3C
100
AcDbEntity
  8
Layer 1
 62
     7
370
    25
100
AcDb2dPolyline
 66
     1
 10
0.0
 20
0.0
 30
0.0
  0
VERTEX
  5
162
330
161
100
AcDbEntity
  8
Layer 1
 62
     7
370
    25
100
AcDbVertex
100
AcDb2dVertex
 10
680.2544296259433
 20
1053.900528707879
 30
0.0
  0
VERTEX
  5
163
330
161
100
AcDbEntity
  8
Layer 1
 62
     7
370
    25
100
AcDbVertex
100
AcDb2dVertex
 10
680.2544296259433
 20
648.9013046337816
 30
0.0
  0
SEQEND
  5
164
330
161
100
AcDbEntity
  8
Layer 1
370
    25
  0
POLYLINE
  5
165
330
3C
100
AcDbEntity
  8
Layer 1
 62
     7
370
    25
100
AcDb2dPolyline
 66
     1
 10
0.0
 20
0.0
 30
0.0
  0
VERTEX
  5
166
330
165
100
AcDbEntity
  8
Layer 1
 62
     7
370
    25
100
AcDbVertex
100
AcDb2dVertex
 10
668.017450462336
 20
803.1880111381787
 30
0.0
  0
VERTEX
  5
167
330
165
100
AcDbEntity
  8
Layer 1
 62
     7
370
    25
100
AcDbVertex
100
AcDb2dVertex
 10
625.6834281204889
 20
803.1880111381787
 30
0.0
  0
SEQEND
  5
168
330
165
100
AcDbEntity
  8
Layer 1
370
    25
  0
POLYLINE
  5
169
330
3C
100
AcDbEntity
  8
Layer 1
 62
     7
370
    25
100
AcDb2dPolyline
 66
     1
 10
0.0
 20
0.0
 30
0.0
  0
VERTEX
  5
16A
330
169
100
AcDbEntity
  8
Layer 1
 62
     7
370
    25
100
AcDbVertex
100
AcDb2dVertex
 10
625.6834281204889
 20
803.1880111381787
 30
0.0
  0
VERTEX
  5
16B
330
169
100
AcDbEntity
  8
Layer 1
 62
     7
370
    25
100
AcDbVertex
100
AcDb2dVertex
 10
653.9056503356555
 20
787.313355651696
 30
0.0
  0
SEQEND
  5
16C
330
169
100
AcDbEntity
  8
Layer 1
370
    25
  0
POLYLINE
  5
16D
330
3C
100
AcDbEntity
  8
Layer 1
 62
     7
370
    25
100
AcDb2dPolyline
 66
     1
 10
0.0
 20
0.0
 30
0.0
  0
VERTEX
  5
16E
330
16D
100
AcDbEntity
  8
Layer 1
 62
     7
370
    25
100
AcDbVertex
100
AcDb2dVertex
 10
653.9056503356555
 20
787.313355651696
 30
0.0
  0
VERTEX
  5
16F
330
16D
100
AcDbEntity
  8
Layer 1
 62
     7
370
    25
100
AcDbVertex
100
AcDb2dVertex
 10
653.9056503356555
 20
808.4796778035225
 30
0.0
  0
SEQEND
  5
170
330
16D
100
AcDbEntity
  8
Layer 1
370
    25
  0
POLYLINE
  5
171
330
3C
100
AcDbEntity
  8
Layer 1
 62
     7
370
    25
100
AcDb2dPolyline
 66
     1
 10
0.0
 20
0.0
 30
0.0
  0
VERTEX
  5
172
330
171
100
AcDbEntity
  8
Layer 1
 62
     7
370
    25
100
AcDbVertex
100
AcDb2dVertex
 10
668.017450462336
 20
824.3545055447795
 30
0.0
  0
VERTEX
  5
173
330
171
100
AcDbEntity
  8
Layer 1
 62
     7
370
    25
100
AcDbVertex
100
AcDb2dVertex
 10
660.9612058894472
 20
819.0628388794357
 30
0.0
  0
SEQEND
  5
174
330
171
100
AcDbEntity
  8
Layer 1
370
    25
  0
POLYLINE
  5
175
330
3C
100
AcDbEntity
  8
Layer 1
 62
     7
370
    25
100
AcDb2dPolyline
 66
     1
 10
0.0
 20
0.0
 30
0.0
  0
VERTEX
  5
176
330
175
100
AcDbEntity
  8
Layer 1
 62
     7
370
    25
100
AcDbVertex
100
AcDb2dVertex
 10
660.9612058894472
 20
819.0628388794357
 30
0.0
  0
VERTEX
  5
177
330
175
100
AcDbEntity
  8
Layer 1
 62
     7
370
    25
100
AcDbVertex
100
AcDb2dVertex
 10
632.7396726933777
 20
819.0628388794357
 30
0.0
  0
SEQEND
  5
178
330
175
100
AcDbEntity
  8
Layer 1
370
    25
  0
POLYLINE
  5
179
330
3C
100
AcDbEntity
  8
Layer 1
 62
     7
370
    25
100
AcDb2dPolyline
 66
     1
 10
0.0
 20
0.0
 30
0.0
  0
VERTEX
  5
17A
330
179
100
AcDbEntity
  8
Layer 1
 62
     7
370
    25
100
AcDbVertex
100
AcDb2dVertex
 10
632.7396726933777
 20
819.0628388794357
 30
0.0
  0
VERTEX
  5
17B
330
179
100
AcDbEntity
  8
Layer 1
 62
     7
370
    25
100
AcDbVertex
100
AcDb2dVertex
 10
625.6834281204889
 20
824.3545055447795
 30
0.0
  0
SEQEND
  5
17C
330
179
100
AcDbEntity
  8
Layer 1
370
    25
  0
POLYLINE
  5
17D
330
3C
100
AcDbEntity
  8
Layer 1
 62
     7
370
    25
100
AcDb2dPolyline
 66
     1
 10
0.0
 20
0.0
 30
0.0
  0
VERTEX
  5
17E
330
17D
100
AcDbEntity
  8
Layer 1
 62
     7
370
    25
100
AcDbVertex
100
AcDb2dVertex
 10
625.6834281204889
 20
824.3545055447795
 30
0.0
  0
VERTEX
  5
17F
330
17D
100
AcDbEntity
  8
Layer 1
 62
     7
370
    25
100
AcDbVertex
100
AcDb2dVertex
 10
625.6834281204889
 20
829.6461722101233
 30
0.0
  0
SEQEND
  5
180
330
17D
100
AcDbEntity
  8
Layer 1
370
    25
  0
POLYLINE
  5
181
330
3C
100
AcDbEntity
  8
Layer 1
 62
     7
370
    25
100
AcDb2dPolyline
 66
     1
 10
0.0
 20
0.0
 30
0.0
  0
VERTEX
  5
182
330
181
100
AcDbEntity
  8
Layer 1
 62
     7
370
    25
100
AcDbVertex
100
AcDb2dVertex
 10
625.6834281204889
 20
829.6461722101233
 30
0.0
  0
VERTEX
  5
183
330
181
100
AcDbEntity
  8
Layer 1
 62
     7
370
    25
100
AcDbVertex
100
AcDb2dVertex
 10
632.7396726933777
 20
834.9380111302412
 30
0.0
  0
SEQEND
  5
184
330
181
100
AcDbEntity
  8
Layer 1
370
    25
  0
POLYLINE
  5
185
330
3C
100
AcDbEntity
  8
Layer 1
 62
     7
370
    25
100
AcDb2dPolyline
 66
     1
 10
0.0
 20
0.0
 30
0.0
  0
VERTEX
  5
186
330
185
100
AcDbEntity
  8
Layer 1
 62
     7
370
    25
100
AcDbVertex
100
AcDb2dVertex
 10
632.7396726933777
 20
834.9380111302412
 30
0.0
  0
VERTEX
  5
187
330
185
100
AcDbEntity
  8
Layer 1
 62
     7
370
    25
100
AcDbVertex
100
AcDb2dVertex
 10
660.9612058894472
 20
834.9380111302412
 30
0.0
  0
SEQEND
  5
188
330
185
100
AcDbEntity
  8
Layer 1
370
    25
  0
POLYLINE
  5
189
330
3C
100
AcDbEntity
  8
Layer 1
 62
     7
370
    25
100
AcDb2dPolyline
 66
     1
 10
0.0
 20
0.0
 30
0.0
  0
VERTEX
  5
18A
330
189
100
AcDbEntity
  8
Layer 1
 62
     7
370
    25
100
AcDbVertex
100
AcDb2dVertex
 10
660.9612058894472
 20
834.9380111302412
 30
0.0
  0
VERTEX
  5
18B
330
189
100
AcDbEntity
  8
Layer 1
 62
     7
370
    25
100
AcDbVertex
100
AcDb2dVertex
 10
668.017450462336
 20
829.6461722101233
 30
0.0
  0
SEQEND
  5
18C
330
189
100
AcDbEntity
  8
Layer 1
370
    25
  0
POLYLINE
  5
18D
330
3C
100
AcDbEntity
  8
Layer 1
 62
     7
370
    25
100
AcDb2dPolyline
 66
     1
 10
0.0
 20
0.0
 30
0.0
  0
VERTEX
  5
18E
330
18D
100
AcDbEntity
  8
Layer 1
 62
     7
370
    25
100
AcDbVertex
100
AcDb2dVertex
 10
668.017450462336
 20
829.6461722101233
 30
0.0
  0
VERTEX
  5
18F
330
18D
100
AcDbEntity
  8
Layer 1
 62
     7
370
    25
100
AcDbVertex
100
AcDb2dVertex
 10
668.017450462336
 20
824.3545055447795
 30
0.0
  0
SEQEND
  5
190
330
18D
100
AcDbEntity
  8
Layer 1
370
    25
  0
POLYLINE
  5
191
330
3C
100
AcDbEntity
  8
Layer 1
 62
     7
370
    25
100
AcDb2dPolyline
 66
     1
 10
0.0
 20
0.0
 30
0.0
  0
VERTEX
  5
192
330
191
100
AcDbEntity
  8
Layer 1
 62
     7
370
    25
100
AcDbVertex
100
AcDb2dVertex
 10
660.9612058894472
 20
845.5213444609287
 30
0.0
  0
VERTEX
  5
193
330
191
100
AcDbEntity
  8
Layer 1
 62
     7
370
    25
100
AcDbVertex
100
AcDb2dVertex
 10
668.017450462336
 20
850.8131833810468
 30
0.0
  0
SEQEND
  5
194
330
191
100
AcDbEntity
  8
Layer 1
370
    25
  0
POLYLINE
  5
195
330
3C
100
AcDbEntity
  8
Layer 1
 62
     7
370
    25
100
AcDb2dPolyline
 66
     1
 10
0.0
 20
0.0
 30
0.0
  0
VERTEX
  5
196
330
195
100
AcDbEntity
  8
Layer 1
 62
     7
370
    25
100
AcDbVertex
100
AcDb2dVertex
 10
668.017450462336
 20
850.8131833810468
 30
0.0
  0
VERTEX
  5
197
330
195
100
AcDbEntity
  8
Layer 1
 62
     7
370
    25
100
AcDbVertex
100
AcDb2dVertex
 10
668.017450462336
 20
861.3961722021858
 30
0.0
  0
SEQEND
  5
198
330
195
100
AcDbEntity
  8
Layer 1
370
    25
  0
POLYLINE
  5
199
330
3C
100
AcDbEntity
  8
Layer 1
 62
     7
370
    25
100
AcDb2dPolyline
 66
     1
 10
0.0
 20
0.0
 30
0.0
  0
VERTEX
  5
19A
330
199
100
AcDbEntity
  8
Layer 1
 62
     7
370
    25
100
AcDbVertex
100
AcDb2dVertex
 10
668.017450462336
 20
861.3961722021858
 30
0.0
  0
VERTEX
  5
19B
330
199
100
AcDbEntity
  8
Layer 1
 62
     7
370
    25
100
AcDbVertex
100
AcDb2dVertex
 10
660.9612058894472
 20
866.6878388675294
 30
0.0
  0
SEQEND
  5
19C
330
199
100
AcDbEntity
  8
Layer 1
370
    25
  0
POLYLINE
  5
19D
330
3C
100
AcDbEntity
  8
Layer 1
 62
     7
370
    25
100
AcDb2dPolyline
 66
     1
 10
0.0
 20
0.0
 30
0.0
  0
VERTEX
  5
19E
330
19D
100
AcDbEntity
  8
Layer 1
 62
     7
370
    25
100
AcDbVertex
100
AcDb2dVertex
 10
660.9612058894472
 20
866.6878388675294
 30
0.0
  0
VERTEX
  5
19F
330
19D
100
AcDbEntity
  8
Layer 1
 62
     7
370
    25
100
AcDbVertex
100
AcDb2dVertex
 10
646.8507838009609
 20
866.6878388675294
 30
0.0
  0
SEQEND
  5
1A0
330
19D
100
AcDbEntity
  8
Layer 1
370
    25
  0
POLYLINE
  5
1A1
330
3C
100
AcDbEntity
  8
Layer 1
 62
     7
370
    25
100
AcDb2dPolyline
 66
     1
 10
0.0
 20
0.0
 30
0.0
  0
VERTEX
  5
1A2
330
1A1
100
AcDbEntity
  8
Layer 1
 62
     7
370
    25
100
AcDbVertex
100
AcDb2dVertex
 10
646.8507838009609
 20
866.6878388675294
 30
0.0
  0
VERTEX
  5
1A3
330
1A1
100
AcDbEntity
  8
Layer 1
 62
     7
370
    25
100
AcDbVertex
100
AcDb2dVertex
 10
639.7952282471692
 20
861.3961722021858
 30
0.0
  0
SEQEND
  5
1A4
330
1A1
100
AcDbEntity
  8
Layer 1
370
    25
  0
POLYLINE
  5
1A5
330
3C
100
AcDbEntity
  8
Layer 1
 62
     7
370
    25
100
AcDb2dPolyline
 66
     1
 10
0.0
 20
0.0
 30
0.0
  0
VERTEX
  5
1A6
330
1A5
100
AcDbEntity
  8
Layer 1
 62
     7
370
    25
100
AcDbVertex
100
AcDb2dVertex
 10
639.7952282471692
 20
861.3961722021858
 30
0.0
  0
VERTEX
  5
1A7
330
1A5
100
AcDbEntity
  8
Layer 1
 62
     7
370
    25
100
AcDbVertex
100
AcDb2dVertex
 10
639.7952282471692
 20
845.5213444609287
 30
0.0
  0
SEQEND
  5
1A8
330
1A5
100
AcDbEntity
  8
Layer 1
370
    25
  0
POLYLINE
  5
1A9
330
3C
100
AcDbEntity
  8
Layer 1
 62
     7
370
    25
100
AcDb2dPolyline
 66
     1
 10
0.0
 20
0.0
 30
0.0
  0
VERTEX
  5
1AA
330
1A9
100
AcDbEntity
  8
Layer 1
 62
     7
370
    25
100
AcDbVertex
100
AcDb2dVertex
 10
639.7952282471692
 20
845.5213444609287
 30
0.0
  0
VERTEX
  5
1AB
330
1A9
100
AcDbEntity
  8
Layer 1
 62
     7
370
    25
100
AcDbVertex
100
AcDb2dVertex
 10
625.6834281204889
 20
845.5213444609287
 30
0.0
  0
SEQEND
  5
1AC
330
1A9
100
AcDbEntity
  8
Layer 1
370
    25
  0
POLYLINE
  5
1AD
330
3C
100
AcDbEntity
  8
Layer 1
 62
     7
370
    25
100
AcDb2dPolyline
 66
     1
 10
0.0
 20
0.0
 30
0.0
  0
VERTEX
  5
1AE
330
1AD
100
AcDbEntity
  8
Layer 1
 62
     7
370
    25
100
AcDbVertex
100
AcDb2dVertex
 10
625.6834281204889
 20
845.5213444609287
 30
0.0
  0
VERTEX
  5
1AF
330
1AD
100
AcDbEntity
  8
Layer 1
 62
     7
370
    25
100
AcDbVertex
100
AcDb2dVertex
 10
625.6834281204889
 20
866.6878388675294
 30
0.0
  0
SEQEND
  5
1B0
330
1AD
100
AcDbEntity
  8
Layer 1
370
    25
  0
POLYLINE
  5
1B1
330
3C
100
AcDbEntity
  8
Layer 1
370
     0
100
AcDb2dPolyline
 66
     1
 10
0.0
 20
0.0
 30
0.0
  0
VERTEX
  5
1B2
330
1B1
100
AcDbEntity
  8
Layer 1
370
     0
100
AcDbVertex
100
AcDb2dVertex
 10
0.254937065908488
 20
1293.900177356647
 30
0.0
  0
VERTEX
  5
1B3
330
1B1
100
AcDbEntity
  8
Layer 1
370
     0
100
AcDbVertex
100
AcDb2dVertex
 10
-29.7449544196471
 20
1288.900482533678
 30
0.0
  0
VERTEX
  5
1B4
330
1B1
100
AcDbEntity
  8
Layer 1
370
     0
100
AcDbVertex
100
AcDb2dVertex
 10
-29.7449544196471
 20
1298.900388943938
 30
0.0
  0
SEQEND
  5
1B5
330
1B1
100
AcDbEntity
  8
Layer 1
370
     0
  0
HATCH
  5
1B6
330
3C
100
AcDbEntity
  8
Layer 1
 62
     7
100
AcDbHatch
 10
0.0
 20
0.0
 30
0.0
210
0.0
220
0.0
230
1.0
  2
SOLID
 70
     1
 71
     0
 91
        1
 92
        1
 93
        3
 72
     1
 10
0.254937065908488
 20
1293.900177356647
 11
-29.7449544196471
 21
1288.900482533678
 72
     1
 10
-29.7449544196471
 20
1288.900482533678
 11
-29.7449544196471
 21
1298.900388943938
 72
     1
 10
-29.7449544196471
 20
1298.900388943938
 11
0.254937065908488
 21
1293.900177356647
 97
        0
 75
     2
 76
     1
 98
        0
  0
POLYLINE
  5
1B7
330
3C
100
AcDbEntity
  8
Layer 1
370
     0
100
AcDb2dPolyline
 66
     1
 10
0.0
 20
0.0
 30
0.0
  0
VERTEX
  5
1B8
330
1B7
100
AcDbEntity
  8
Layer 1
370
     0
100
AcDbVertex
100
AcDb2dVertex
 10
25.25496147372098
 20
1293.900177356647
 30
0.0
  0
VERTEX
  5
1B9
330
1B7
100
AcDbEntity
  8
Layer 1
370
     0
100
AcDbVertex
100
AcDb2dVertex
 10
55.25485295927657
 20
1298.900388943938
 30
0.0
  0
VERTEX
  5
1BA
330
1B7
100
AcDbEntity
  8
Layer 1
370
     0
100
AcDbVertex
100
AcDb2dVertex
 10
55.25485295927657
 20
1288.900482533678
 30
0.0
  0
SEQEND
  5
1BB
330
1B7
100
AcDbEntity
  8
Layer 1
370
     0
  0
HATCH
  5
1BC
330
3C
100
AcDbEntity
  8
Layer 1
 62
     7
100
AcDbHatch
 10
0.0
 20
0.0
 30
0.0
210
0.0
220
0.0
230
1.0
  2
SOLID
 70
     1
 71
     0
 91
        1
 92
        1
 93
        3
 72
     1
 10
25.25496147372098
 20
1293.900177356647
 11
55.25485295927657
 21
1298.900388943938
 72
     1
 10
55.25485295927657
 20
1298.900388943938
 11
55.25485295927657
 21
1288.900482533678
 72
     1
 10
55.25485295927657
 20
1288.900482533678
 11
25.25496147372098
 21
1293.900177356647
 97
        0
 75
     2
 76
     1
 98
        0
  0
POLYLINE
  5
1BD
330
3C
100
AcDbEntity
  8
Layer 1
 62
     7
370
    25
100
AcDb2dPolyline
 66
     1
 10
0.0
 20
0.0
 30
0.0
  0
VERTEX
  5
1BE
330
1BD
100
AcDbEntity
  8
Layer 1
 62
     7
370
    25
100
AcDbVertex
100
AcDb2dVertex
 10
0.254937065908488
 20
1175.544094215663
 30
0.0
  0
VERTEX
  5
1BF
330
1BD
100
AcDbEntity
  8
Layer 1
 62
     7
370
    25
100
AcDbVertex
100
AcDb2dVertex
 10
0.254937065908488
 20
1303.90060053123
 30
0.0
  0
SEQEND
  5
1C0
330
1BD
100
AcDbEntity
  8
Layer 1
370
    25
  0
POLYLINE
  5
1C1
330
3C
100
AcDbEntity
  8
Layer 1
 62
     7
370
    25
100
AcDb2dPolyline
 66
     1
 10
0.0
 20
0.0
 30
0.0
  0
VERTEX
  5
1C2
330
1C1
100
AcDbEntity
  8
Layer 1
 62
     7
370
    25
100
AcDbVertex
100
AcDb2dVertex
 10
25.25496147372098
 20
1174.843189539189
 30
0.0
  0
VERTEX
  5
1C3
330
1C1
100
AcDbEntity
  8
Layer 1
 62
     7
370
    25
100
AcDbVertex
100
AcDb2dVertex
 10
25.25496147372098
 20
1303.90060053123
 30
0.0
  0
SEQEND
  5
1C4
330
1C1
100
AcDbEntity
  8
Layer 1
370
    25
  0
POLYLINE
  5
1C5
330
3C
100
AcDbEntity
  8
Layer 1
 62
     7
370
    25
100
AcDb2dPolyline
 66
     1
 10
0.0
 20
0.0
 30
0.0
  0
VERTEX
  5
1C6
330
1C5
100
AcDbEntity
  8
Layer 1
 62
     7
370
    25
100
AcDbVertex
100
AcDb2dVertex
 10
0.254937065908488
 20
1293.900177356647
 30
0.0
  0
VERTEX
  5
1C7
330
1C5
100
AcDbEntity
  8
Layer 1
 62
     7
370
    25
100
AcDbVertex
100
AcDb2dVertex
 10
-111.2300753845189
 20
1293.900177356647
 30
0.0
  0
SEQEND
  5
1C8
330
1C5
100
AcDbEntity
  8
Layer 1
370
    25
  0
POLYLINE
  5
1C9
330
3C
100
AcDbEntity
  8
Layer 1
 62
     7
370
    25
100
AcDb2dPolyline
 66
     1
 10
0.0
 20
0.0
 30
0.0
  0
VERTEX
  5
1CA
330
1C9
100
AcDbEntity
  8
Layer 1
 62
     7
370
    25
100
AcDbVertex
100
AcDb2dVertex
 10
0.254937065908488
 20
1293.900177356647
 30
0.0
  0
VERTEX
  5
1CB
330
1C9
100
AcDbEntity
  8
Layer 1
 62
     7
370
    25
100
AcDbVertex
100
AcDb2dVertex
 10
25.25496147372098
 20
1293.900177356647
 30
0.0
  0
SEQEND
  5
1CC
330
1C9
100
AcDbEntity
  8
Layer 1
370
    25
  0
POLYLINE
  5
1CD
330
3C
100
AcDbEntity
  8
Layer 1
 62
     7
370
    25
100
AcDb2dPolyline
 66
     1
 10
0.0
 20
0.0
 30
0.0
  0
VERTEX
  5
1CE
330
1CD
100
AcDbEntity
  8
Layer 1
 62
     7
370
    25
100
AcDbVertex
100
AcDb2dVertex
 10
25.25496147372098
 20
1293.900177356647
 30
0.0
  0
VERTEX
  5
1CF
330
1CD
100
AcDbEntity
  8
Layer 1
 62
     7
370
    25
100
AcDbVertex
100
AcDb2dVertex
 10
85.25491669960641
 20
1293.900177356647
 30
0.0
  0
SEQEND
  5
1D0
330
1CD
100
AcDbEntity
  8
Layer 1
370
    25
  0
POLYLINE
  5
1D1
330
3C
100
AcDbEntity
  8
Layer 1
 62
     7
370
    25
100
AcDb2dPolyline
 66
     1
 10
0.0
 20
0.0
 30
0.0
  0
VERTEX
  5
1D2
330
1D1
100
AcDbEntity
  8
Layer 1
 62
     7
370
    25
100
AcDbVertex
100
AcDb2dVertex
 10
-111.2300753845189
 20
1341.415106543987
 30
0.0
  0
VERTEX
  5
1D3
330
1D1
100
AcDbEntity
  8
Layer 1
 62
     7
370
    25
100
AcDbVertex
100
AcDb2dVertex
 10
-105.9384087191751
 20
1348.470834352552
 30
0.0
  0
SEQEND
  5
1D4
330
1D1
100
AcDbEntity
  8
Layer 1
370
    25
  0
POLYLINE
  5
1D5
330
3C
100
AcDbEntity
  8
Layer 1
 62
     7
370
    25
100
AcDb2dPolyline
 66
     1
 10
0.0
 20
0.0
 30
0.0
  0
VERTEX
  5
1D6
330
1D5
100
AcDbEntity
  8
Layer 1
 62
     7
370
    25
100
AcDbVertex
100
AcDb2dVertex
 10
-105.9384087191751
 20
1348.470834352552
 30
0.0
  0
VERTEX
  5
1D7
330
1D5
100
AcDbEntity
  8
Layer 1
 62
     7
370
    25
100
AcDbVertex
100
AcDb2dVertex
 10
-95.35490313371336
 20
1348.470834352552
 30
0.0
  0
SEQEND
  5
1D8
330
1D5
100
AcDbEntity
  8
Layer 1
370
    25
  0
POLYLINE
  5
1D9
330
3C
100
AcDbEntity
  8
Layer 1
 62
     7
370
    25
100
AcDb2dPolyline
 66
     1
 10
0.0
 20
0.0
 30
0.0
  0
VERTEX
  5
1DA
330
1D9
100
AcDbEntity
  8
Layer 1
 62
     7
370
    25
100
AcDbVertex
100
AcDb2dVertex
 10
-95.35490313371336
 20
1348.470834352552
 30
0.0
  0
VERTEX
  5
1DB
330
1D9
100
AcDbEntity
  8
Layer 1
 62
     7
370
    25
100
AcDbVertex
100
AcDb2dVertex
 10
-90.06323646836961
 20
1341.415106543987
 30
0.0
  0
SEQEND
  5
1DC
330
1D9
100
AcDbEntity
  8
Layer 1
370
    25
  0
POLYLINE
  5
1DD
330
3C
100
AcDbEntity
  8
Layer 1
 62
     7
370
    25
100
AcDb2dPolyline
 66
     1
 10
0.0
 20
0.0
 30
0.0
  0
VERTEX
  5
1DE
330
1DD
100
AcDbEntity
  8
Layer 1
 62
     7
370
    25
100
AcDbVertex
100
AcDb2dVertex
 10
-90.06323646836961
 20
1341.415106543987
 30
0.0
  0
VERTEX
  5
1DF
330
1DD
100
AcDbEntity
  8
Layer 1
 62
     7
370
    25
100
AcDbVertex
100
AcDb2dVertex
 10
-90.06323646836961
 20
1334.359723244969
 30
0.0
  0
SEQEND
  5
1E0
330
1DD
100
AcDbEntity
  8
Layer 1
370
    25
  0
POLYLINE
  5
1E1
330
3C
100
AcDbEntity
  8
Layer 1
 62
     7
370
    25
100
AcDb2dPolyline
 66
     1
 10
0.0
 20
0.0
 30
0.0
  0
VERTEX
  5
1E2
330
1E1
100
AcDbEntity
  8
Layer 1
 62
     7
370
    25
100
AcDbVertex
100
AcDb2dVertex
 10
-90.06323646836961
 20
1334.359723244969
 30
0.0
  0
VERTEX
  5
1E3
330
1E1
100
AcDbEntity
  8
Layer 1
 62
     7
370
    25
100
AcDbVertex
100
AcDb2dVertex
 10
-95.35490313371336
 20
1327.304339945952
 30
0.0
  0
SEQEND
  5
1E4
330
1E1
100
AcDbEntity
  8
Layer 1
370
    25
  0
POLYLINE
  5
1E5
330
3C
100
AcDbEntity
  8
Layer 1
 62
     7
370
    25
100
AcDb2dPolyline
 66
     1
 10
0.0
 20
0.0
 30
0.0
  0
VERTEX
  5
1E6
330
1E5
100
AcDbEntity
  8
Layer 1
 62
     7
370
    25
100
AcDbVertex
100
AcDb2dVertex
 10
-95.35490313371336
 20
1327.304339945952
 30
0.0
  0
VERTEX
  5
1E7
330
1E5
100
AcDbEntity
  8
Layer 1
 62
     7
370
    25
100
AcDbVertex
100
AcDb2dVertex
 10
-105.9384087191751
 20
1327.304339945952
 30
0.0
  0
SEQEND
  5
1E8
330
1E5
100
AcDbEntity
  8
Layer 1
370
    25
  0
POLYLINE
  5
1E9
330
3C
100
AcDbEntity
  8
Layer 1
 62
     7
370
    25
100
AcDb2dPolyline
 66
     1
 10
0.0
 20
0.0
 30
0.0
  0
VERTEX
  5
1EA
330
1E9
100
AcDbEntity
  8
Layer 1
 62
     7
370
    25
100
AcDbVertex
100
AcDb2dVertex
 10
-105.9384087191751
 20
1327.304339945952
 30
0.0
  0
VERTEX
  5
1EB
330
1E9
100
AcDbEntity
  8
Layer 1
 62
     7
370
    25
100
AcDbVertex
100
AcDb2dVertex
 10
-111.2300753845189
 20
1320.248612137386
 30
0.0
  0
SEQEND
  5
1EC
330
1E9
100
AcDbEntity
  8
Layer 1
370
    25
  0
POLYLINE
  5
1ED
330
3C
100
AcDbEntity
  8
Layer 1
 62
     7
370
    25
100
AcDb2dPolyline
 66
     1
 10
0.0
 20
0.0
 30
0.0
  0
VERTEX
  5
1EE
330
1ED
100
AcDbEntity
  8
Layer 1
 62
     7
370
    25
100
AcDbVertex
100
AcDb2dVertex
 10
-111.2300753845189
 20
1320.248612137386
 30
0.0
  0
VERTEX
  5
1EF
330
1ED
100
AcDbEntity
  8
Layer 1
 62
     7
370
    25
100
AcDbVertex
100
AcDb2dVertex
 10
-111.2300753845189
 20
1306.137501029802
 30
0.0
  0
SEQEND
  5
1F0
330
1ED
100
AcDbEntity
  8
Layer 1
370
    25
  0
POLYLINE
  5
1F1
330
3C
100
AcDbEntity
  8
Layer 1
 62
     7
370
    25
100
AcDb2dPolyline
 66
     1
 10
0.0
 20
0.0
 30
0.0
  0
VERTEX
  5
1F2
330
1F1
100
AcDbEntity
  8
Layer 1
 62
     7
370
    25
100
AcDbVertex
100
AcDb2dVertex
 10
-111.2300753845189
 20
1306.137501029802
 30
0.0
  0
VERTEX
  5
1F3
330
1F1
100
AcDbEntity
  8
Layer 1
 62
     7
370
    25
100
AcDbVertex
100
AcDb2dVertex
 10
-90.06323646836961
 20
1306.137501029802
 30
0.0
  0
SEQEND
  5
1F4
330
1F1
100
AcDbEntity
  8
Layer 1
370
    25
  0
POLYLINE
  5
1F5
330
3C
100
AcDbEntity
  8
Layer 1
 62
     7
370
    25
100
AcDb2dPolyline
 66
     1
 10
0.0
 20
0.0
 30
0.0
  0
VERTEX
  5
1F6
330
1F5
100
AcDbEntity
  8
Layer 1
 62
     7
370
    25
100
AcDbVertex
100
AcDb2dVertex
 10
-79.47973088290784
 20
1313.193228838368
 30
0.0
  0
VERTEX
  5
1F7
330
1F5
100
AcDbEntity
  8
Layer 1
 62
     7
370
    25
100
AcDbVertex
100
AcDb2dVertex
 10
-74.18840872711263
 20
1306.137501029802
 30
0.0
  0
SEQEND
  5
1F8
330
1F5
100
AcDbEntity
  8
Layer 1
370
    25
  0
POLYLINE
  5
1F9
330
3C
100
AcDbEntity
  8
Layer 1
 62
     7
370
    25
100
AcDb2dPolyline
 66
     1
 10
0.0
 20
0.0
 30
0.0
  0
VERTEX
  5
1FA
330
1F9
100
AcDbEntity
  8
Layer 1
 62
     7
370
    25
100
AcDbVertex
100
AcDb2dVertex
 10
-74.18840872711263
 20
1306.137501029802
 30
0.0
  0
VERTEX
  5
1FB
330
1F9
100
AcDbEntity
  8
Layer 1
 62
     7
370
    25
100
AcDbVertex
100
AcDb2dVertex
 10
-63.60507539642512
 20
1306.137501029802
 30
0.0
  0
SEQEND
  5
1FC
330
1F9
100
AcDbEntity
  8
Layer 1
370
    25
  0
POLYLINE
  5
1FD
330
3C
100
AcDbEntity
  8
Layer 1
 62
     7
370
    25
100
AcDb2dPolyline
 66
     1
 10
0.0
 20
0.0
 30
0.0
  0
VERTEX
  5
1FE
330
1FD
100
AcDbEntity
  8
Layer 1
 62
     7
370
    25
100
AcDbVertex
100
AcDb2dVertex
 10
-63.60507539642512
 20
1306.137501029802
 30
0.0
  0
VERTEX
  5
1FF
330
1FD
100
AcDbEntity
  8
Layer 1
 62
     7
370
    25
100
AcDbVertex
100
AcDb2dVertex
 10
-58.31323647630711
 20
1313.193228838368
 30
0.0
  0
SEQEND
  5
200
330
1FD
100
AcDbEntity
  8
Layer 1
370
    25
  0
POLYLINE
  5
201
330
3C
100
AcDbEntity
  8
Layer 1
 62
     7
370
    25
100
AcDb2dPolyline
 66
     1
 10
0.0
 20
0.0
 30
0.0
  0
VERTEX
  5
202
330
201
100
AcDbEntity
  8
Layer 1
 62
     7
370
    25
100
AcDbVertex
100
AcDb2dVertex
 10
-58.31323647630711
 20
1313.193228838368
 30
0.0
  0
VERTEX
  5
203
330
201
100
AcDbEntity
  8
Layer 1
 62
     7
370
    25
100
AcDbVertex
100
AcDb2dVertex
 10
-58.31323647630711
 20
1327.304339945952
 30
0.0
  0
SEQEND
  5
204
330
201
100
AcDbEntity
  8
Layer 1
370
    25
  0
POLYLINE
  5
205
330
3C
100
AcDbEntity
  8
Layer 1
 62
     7
370
    25
100
AcDb2dPolyline
 66
     1
 10
0.0
 20
0.0
 30
0.0
  0
VERTEX
  5
206
330
205
100
AcDbEntity
  8
Layer 1
 62
     7
370
    25
100
AcDbVertex
100
AcDb2dVertex
 10
-58.31323647630711
 20
1327.304339945952
 30
0.0
  0
VERTEX
  5
207
330
205
100
AcDbEntity
  8
Layer 1
 62
     7
370
    25
100
AcDbVertex
100
AcDb2dVertex
 10
-63.60507539642512
 20
1334.359723244969
 30
0.0
  0
SEQEND
  5
208
330
205
100
AcDbEntity
  8
Layer 1
370
    25
  0
POLYLINE
  5
209
330
3C
100
AcDbEntity
  8
Layer 1
 62
     7
370
    25
100
AcDb2dPolyline
 66
     1
 10
0.0
 20
0.0
 30
0.0
  0
VERTEX
  5
20A
330
209
100
AcDbEntity
  8
Layer 1
 62
     7
370
    25
100
AcDbVertex
100
AcDb2dVertex
 10
-63.60507539642512
 20
1334.359723244969
 30
0.0
  0
VERTEX
  5
20B
330
209
100
AcDbEntity
  8
Layer 1
 62
     7
370
    25
100
AcDbVertex
100
AcDb2dVertex
 10
-79.47973088290784
 20
1334.359723244969
 30
0.0
  0
SEQEND
  5
20C
330
209
100
AcDbEntity
  8
Layer 1
370
    25
  0
POLYLINE
  5
20D
330
3C
100
AcDbEntity
  8
Layer 1
 62
     7
370
    25
100
AcDb2dPolyline
 66
     1
 10
0.0
 20
0.0
 30
0.0
  0
VERTEX
  5
20E
330
20D
100
AcDbEntity
  8
Layer 1
 62
     7
370
    25
100
AcDbVertex
100
AcDb2dVertex
 10
-79.47973088290784
 20
1334.359723244969
 30
0.0
  0
VERTEX
  5
20F
330
20D
100
AcDbEntity
  8
Layer 1
 62
     7
370
    25
100
AcDbVertex
100
AcDb2dVertex
 10
-79.47973088290784
 20
1348.470834352552
 30
0.0
  0
SEQEND
  5
210
330
20D
100
AcDbEntity
  8
Layer 1
370
    25
  0
POLYLINE
  5
211
330
3C
100
AcDbEntity
  8
Layer 1
 62
     7
370
    25
100
AcDb2dPolyline
 66
     1
 10
0.0
 20
0.0
 30
0.0
  0
VERTEX
  5
212
330
211
100
AcDbEntity
  8
Layer 1
 62
     7
370
    25
100
AcDbVertex
100
AcDb2dVertex
 10
-79.47973088290784
 20
1348.470834352552
 30
0.0
  0
VERTEX
  5
213
330
211
100
AcDbEntity
  8
Layer 1
 62
     7
370
    25
100
AcDbVertex
100
AcDb2dVertex
 10
-58.31323647630711
 20
1348.470834352552
 30
0.0
  0
SEQEND
  5
214
330
211
100
AcDbEntity
  8
Layer 1
370
    25
  0
POLYLINE
  5
215
330
3C
100
AcDbEntity
  8
Layer 1
370
     0
100
AcDb2dPolyline
 66
     1
 10
0.0
 20
0.0
 30
0.0
  0
VERTEX
  5
216
330
215
100
AcDbEntity
  8
Layer 1
370
     0
100
AcDbVertex
100
AcDb2dVertex
 10
25.25496147372098
 20
1293.900177356647
 30
0.0
  0
VERTEX
  5
217
330
215
100
AcDbEntity
  8
Layer 1
370
     0
100
AcDbVertex
100
AcDb2dVertex
 10
55.25485295927657
 20
1298.900388943938
 30
0.0
  0
VERTEX
  5
218
330
215
100
AcDbEntity
  8
Layer 1
370
     0
100
AcDbVertex
100
AcDb2dVertex
 10
55.25485295927657
 20
1288.900482533678
 30
0.0
  0
SEQEND
  5
219
330
215
100
AcDbEntity
  8
Layer 1
370
     0
  0
HATCH
  5
21A
330
3C
100
AcDbEntity
  8
Layer 1
 62
     7
100
AcDbHatch
 10
0.0
 20
0.0
 30
0.0
210
0.0
220
0.0
230
1.0
  2
SOLID
 70
     1
 71
     0
 91
        1
 92
        1
 93
        3
 72
     1
 10
25.25496147372098
 20
1293.900177356647
 11
55.25485295927657
 21
1298.900388943938
 72
     1
 10
55.25485295927657
 20
1298.900388943938
 11
55.25485295927657
 21
1288.900482533678
 72
     1
 10
55.25485295927657
 20
1288.900482533678
 11
25.25496147372098
 21
1293.900177356647
 97
        0
 75
     2
 76
     1
 98
        0
  0
POLYLINE
  5
21B
330
3C
100
AcDbEntity
  8
Layer 1
370
     0
100
AcDb2dPolyline
 66
     1
 10
0.0
 20
0.0
 30
0.0
  0
VERTEX
  5
21C
330
21B
100
AcDbEntity
  8
Layer 1
370
     0
100
AcDbVertex
100
AcDb2dVertex
 10
495.2548691253182
 20
1293.900177356647
 30
0.0
  0
VERTEX
  5
21D
330
21B
100
AcDbEntity
  8
Layer 1
370
     0
100
AcDbVertex
100
AcDb2dVertex
 10
465.2549776397627
 20
1288.900482533678
 30
0.0
  0
VERTEX
  5
21E
330
21B
100
AcDbEntity
  8
Layer 1
370
     0
100
AcDbVertex
100
AcDb2dVertex
 10
465.2549776397627
 20
1298.900388943938
 30
0.0
  0
SEQEND
  5
21F
330
21B
100
AcDbEntity
  8
Layer 1
370
     0
  0
HATCH
  5
220
330
3C
100
AcDbEntity
  8
Layer 1
 62
     7
100
AcDbHatch
 10
0.0
 20
0.0
 30
0.0
210
0.0
220
0.0
230
1.0
  2
SOLID
 70
     1
 71
     0
 91
        1
 92
        1
 93
        3
 72
     1
 10
495.2548691253182
 20
1293.900177356647
 11
465.2549776397627
 21
1288.900482533678
 72
     1
 10
465.2549776397627
 20
1288.900482533678
 11
465.2549776397627
 21
1298.900388943938
 72
     1
 10
465.2549776397627
 20
1298.900388943938
 11
495.2548691253182
 21
1293.900177356647
 97
        0
 75
     2
 76
     1
 98
        0
  0
POLYLINE
  5
221
330
3C
100
AcDbEntity
  8
Layer 1
 62
     7
370
    25
100
AcDb2dPolyline
 66
     1
 10
0.0
 20
0.0
 30
0.0
  0
VERTEX
  5
222
330
221
100
AcDbEntity
  8
Layer 1
 62
     7
370
    25
100
AcDbVertex
100
AcDb2dVertex
 10
25.25496147372098
 20
1174.49247881879
 30
0.0
  0
VERTEX
  5
223
330
221
100
AcDbEntity
  8
Layer 1
 62
     7
370
    25
100
AcDbVertex
100
AcDb2dVertex
 10
25.25496147372098
 20
1303.90060053123
 30
0.0
  0
SEQEND
  5
224
330
221
100
AcDbEntity
  8
Layer 1
370
    25
  0
POLYLINE
  5
225
330
3C
100
AcDbEntity
  8
Layer 1
 62
     7
370
    25
100
AcDb2dPolyline
 66
     1
 10
0.0
 20
0.0
 30
0.0
  0
VERTEX
  5
226
330
225
100
AcDbEntity
  8
Layer 1
 62
     7
370
    25
100
AcDbVertex
100
AcDb2dVertex
 10
495.2548691253182
 20
1174.843189539189
 30
0.0
  0
VERTEX
  5
227
330
225
100
AcDbEntity
  8
Layer 1
 62
     7
370
    25
100
AcDbVertex
100
AcDb2dVertex
 10
495.2548691253182
 20
1303.90060053123
 30
0.0
  0
SEQEND
  5
228
330
225
100
AcDbEntity
  8
Layer 1
370
    25
  0
POLYLINE
  5
229
330
3C
100
AcDbEntity
  8
Layer 1
 62
     7
370
    25
100
AcDb2dPolyline
 66
     1
 10
0.0
 20
0.0
 30
0.0
  0
VERTEX
  5
22A
330
229
100
AcDbEntity
  8
Layer 1
 62
     7
370
    25
100
AcDbVertex
100
AcDb2dVertex
 10
25.25496147372098
 20
1293.900177356647
 30
0.0
  0
VERTEX
  5
22B
330
229
100
AcDbEntity
  8
Layer 1
 62
     7
370
    25
100
AcDbVertex
100
AcDb2dVertex
 10
495.2548691253182
 20
1293.900177356647
 30
0.0
  0
SEQEND
  5
22C
330
229
100
AcDbEntity
  8
Layer 1
370
    25
  0
POLYLINE
  5
22D
330
3C
100
AcDbEntity
  8
Layer 1
 62
     7
370
    25
100
AcDb2dPolyline
 66
     1
 10
0.0
 20
0.0
 30
0.0
  0
VERTEX
  5
22E
330
22D
100
AcDbEntity
  8
Layer 1
 62
     7
370
    25
100
AcDbVertex
100
AcDb2dVertex
 10
217.4873276908539
 20
1306.137501029802
 30
0.0
  0
VERTEX
  5
22F
330
22D
100
AcDbEntity
  8
Layer 1
 62
     7
370
    25
100
AcDbVertex
100
AcDb2dVertex
 10
217.4873276908539
 20
1348.470834352552
 30
0.0
  0
SEQEND
  5
230
330
22D
100
AcDbEntity
  8
Layer 1
370
    25
  0
POLYLINE
  5
231
330
3C
100
AcDbEntity
  8
Layer 1
 62
     7
370
    25
100
AcDb2dPolyline
 66
     1
 10
0.0
 20
0.0
 30
0.0
  0
VERTEX
  5
232
330
231
100
AcDbEntity
  8
Layer 1
 62
     7
370
    25
100
AcDbVertex
100
AcDb2dVertex
 10
217.4873276908539
 20
1348.470834352552
 30
0.0
  0
VERTEX
  5
233
330
231
100
AcDbEntity
  8
Layer 1
 62
     7
370
    25
100
AcDbVertex
100
AcDb2dVertex
 10
201.6121554400484
 20
1320.248612137386
 30
0.0
  0
SEQEND
  5
234
330
231
100
AcDbEntity
  8
Layer 1
370
    25
  0
POLYLINE
  5
235
330
3C
100
AcDbEntity
  8
Layer 1
 62
     7
370
    25
100
AcDb2dPolyline
 66
     1
 10
0.0
 20
0.0
 30
0.0
  0
VERTEX
  5
236
330
235
100
AcDbEntity
  8
Layer 1
 62
     7
370
    25
100
AcDbVertex
100
AcDb2dVertex
 10
201.6121554400484
 20
1320.248612137386
 30
0.0
  0
VERTEX
  5
237
330
235
100
AcDbEntity
  8
Layer 1
 62
     7
370
    25
100
AcDbVertex
100
AcDb2dVertex
 10
222.7789943561976
 20
1320.248612137386
 30
0.0
  0
SEQEND
  5
238
330
235
100
AcDbEntity
  8
Layer 1
370
    25
  0
POLYLINE
  5
239
330
3C
100
AcDbEntity
  8
Layer 1
 62
     7
370
    25
100
AcDb2dPolyline
 66
     1
 10
0.0
 20
0.0
 30
0.0
  0
VERTEX
  5
23A
330
239
100
AcDbEntity
  8
Layer 1
 62
     7
370
    25
100
AcDbVertex
100
AcDb2dVertex
 10
233.3623276868851
 20
1348.470834352552
 30
0.0
  0
VERTEX
  5
23B
330
239
100
AcDbEntity
  8
Layer 1
 62
     7
370
    25
100
AcDbVertex
100
AcDb2dVertex
 10
254.5283053291631
 20
1348.470834352552
 30
0.0
  0
SEQEND
  5
23C
330
239
100
AcDbEntity
  8
Layer 1
370
    25
  0
POLYLINE
  5
23D
330
3C
100
AcDbEntity
  8
Layer 1
 62
     7
370
    25
100
AcDb2dPolyline
 66
     1
 10
0.0
 20
0.0
 30
0.0
  0
VERTEX
  5
23E
330
23D
100
AcDbEntity
  8
Layer 1
 62
     7
370
    25
100
AcDbVertex
100
AcDb2dVertex
 10
254.5283053291631
 20
1348.470834352552
 30
0.0
  0
VERTEX
  5
23F
330
23D
100
AcDbEntity
  8
Layer 1
 62
     7
370
    25
100
AcDbVertex
100
AcDb2dVertex
 10
238.6533053331318
 20
1306.137501029802
 30
0.0
  0
SEQEND
  5
240
330
23D
100
AcDbEntity
  8
Layer 1
370
    25
  0
POLYLINE
  5
241
330
3C
100
AcDbEntity
  8
Layer 1
 62
     7
370
    25
100
AcDb2dPolyline
 66
     1
 10
0.0
 20
0.0
 30
0.0
  0
VERTEX
  5
242
330
241
100
AcDbEntity
  8
Layer 1
 62
     7
370
    25
100
AcDbVertex
100
AcDb2dVertex
 10
270.4036498347429
 20
1306.137501029802
 30
0.0
  0
VERTEX
  5
243
330
241
100
AcDbEntity
  8
Layer 1
 62
     7
370
    25
100
AcDbVertex
100
AcDb2dVertex
 10
265.1119831693991
 20
1313.193228838368
 30
0.0
  0
SEQEND
  5
244
330
241
100
AcDbEntity
  8
Layer 1
370
    25
  0
POLYLINE
  5
245
330
3C
100
AcDbEntity
  8
Layer 1
 62
     7
370
    25
100
AcDb2dPolyline
 66
     1
 10
0.0
 20
0.0
 30
0.0
  0
VERTEX
  5
246
330
245
100
AcDbEntity
  8
Layer 1
 62
     7
370
    25
100
AcDbVertex
100
AcDb2dVertex
 10
265.1119831693991
 20
1313.193228838368
 30
0.0
  0
VERTEX
  5
247
330
245
100
AcDbEntity
  8
Layer 1
 62
     7
370
    25
100
AcDbVertex
100
AcDb2dVertex
 10
265.1119831693991
 20
1341.415106543987
 30
0.0
  0
SEQEND
  5
248
330
245
100
AcDbEntity
  8
Layer 1
370
    25
  0
POLYLINE
  5
249
330
3C
100
AcDbEntity
  8
Layer 1
 62
     7
370
    25
100
AcDb2dPolyline
 66
     1
 10
0.0
 20
0.0
 30
0.0
  0
VERTEX
  5
24A
330
249
100
AcDbEntity
  8
Layer 1
 62
     7
370
    25
100
AcDbVertex
100
AcDb2dVertex
 10
265.1119831693991
 20
1341.415106543987
 30
0.0
  0
VERTEX
  5
24B
330
249
100
AcDbEntity
  8
Layer 1
 62
     7
370
    25
100
AcDbVertex
100
AcDb2dVertex
 10
270.4036498347429
 20
1348.470834352552
 30
0.0
  0
SEQEND
  5
24C
330
249
100
AcDbEntity
  8
Layer 1
370
    25
  0
POLYLINE
  5
24D
330
3C
100
AcDbEntity
  8
Layer 1
 62
     7
370
    25
100
AcDb2dPolyline
 66
     1
 10
0.0
 20
0.0
 30
0.0
  0
VERTEX
  5
24E
330
24D
100
AcDbEntity
  8
Layer 1
 62
     7
370
    25
100
AcDbVertex
100
AcDb2dVertex
 10
270.4036498347429
 20
1348.470834352552
 30
0.0
  0
VERTEX
  5
24F
330
24D
100
AcDbEntity
  8
Layer 1
 62
     7
370
    25
100
AcDbVertex
100
AcDb2dVertex
 10
275.6953165000866
 20
1348.470834352552
 30
0.0
  0
SEQEND
  5
250
330
24D
100
AcDbEntity
  8
Layer 1
370
    25
  0
POLYLINE
  5
251
330
3C
100
AcDbEntity
  8
Layer 1
 62
     7
370
    25
100
AcDb2dPolyline
 66
     1
 10
0.0
 20
0.0
 30
0.0
  0
VERTEX
  5
252
330
251
100
AcDbEntity
  8
Layer 1
 62
     7
370
    25
100
AcDbVertex
100
AcDb2dVertex
 10
275.6953165000866
 20
1348.470834352552
 30
0.0
  0
VERTEX
  5
253
330
251
100
AcDbEntity
  8
Layer 1
 62
     7
370
    25
100
AcDbVertex
100
AcDb2dVertex
 10
280.9869831654303
 20
1341.415106543987
 30
0.0
  0
SEQEND
  5
254
330
251
100
AcDbEntity
  8
Layer 1
370
    25
  0
POLYLINE
  5
255
330
3C
100
AcDbEntity
  8
Layer 1
 62
     7
370
    25
100
AcDb2dPolyline
 66
     1
 10
0.0
 20
0.0
 30
0.0
  0
VERTEX
  5
256
330
255
100
AcDbEntity
  8
Layer 1
 62
     7
370
    25
100
AcDbVertex
100
AcDb2dVertex
 10
280.9869831654303
 20
1341.415106543987
 30
0.0
  0
VERTEX
  5
257
330
255
100
AcDbEntity
  8
Layer 1
 62
     7
370
    25
100
AcDbVertex
100
AcDb2dVertex
 10
280.9869831654303
 20
1313.193228838368
 30
0.0
  0
SEQEND
  5
258
330
255
100
AcDbEntity
  8
Layer 1
370
    25
  0
POLYLINE
  5
259
330
3C
100
AcDbEntity
  8
Layer 1
 62
     7
370
    25
100
AcDb2dPolyline
 66
     1
 10
0.0
 20
0.0
 30
0.0
  0
VERTEX
  5
25A
330
259
100
AcDbEntity
  8
Layer 1
 62
     7
370
    25
100
AcDbVertex
100
AcDb2dVertex
 10
280.9869831654303
 20
1313.193228838368
 30
0.0
  0
VERTEX
  5
25B
330
259
100
AcDbEntity
  8
Layer 1
 62
     7
370
    25
100
AcDbVertex
100
AcDb2dVertex
 10
275.6953165000866
 20
1306.137501029802
 30
0.0
  0
SEQEND
  5
25C
330
259
100
AcDbEntity
  8
Layer 1
370
    25
  0
POLYLINE
  5
25D
330
3C
100
AcDbEntity
  8
Layer 1
 62
     7
370
    25
100
AcDb2dPolyline
 66
     1
 10
0.0
 20
0.0
 30
0.0
  0
VERTEX
  5
25E
330
25D
100
AcDbEntity
  8
Layer 1
 62
     7
370
    25
100
AcDbVertex
100
AcDb2dVertex
 10
275.6953165000866
 20
1306.137501029802
 30
0.0
  0
VERTEX
  5
25F
330
25D
100
AcDbEntity
  8
Layer 1
 62
     7
370
    25
100
AcDbVertex
100
AcDb2dVertex
 10
270.4036498347429
 20
1306.137501029802
 30
0.0
  0
SEQEND
  5
260
330
25D
100
AcDbEntity
  8
Layer 1
370
    25
  0
POLYLINE
  5
261
330
3C
100
AcDbEntity
  8
Layer 1
370
     0
100
AcDb2dPolyline
 66
     1
 10
0.0
 20
0.0
 30
0.0
  0
VERTEX
  5
262
330
261
100
AcDbEntity
  8
Layer 1
370
     0
100
AcDbVertex
100
AcDb2dVertex
 10
495.2548691253182
 20
1293.900177356647
 30
0.0
  0
VERTEX
  5
263
330
261
100
AcDbEntity
  8
Layer 1
370
     0
100
AcDbVertex
100
AcDb2dVertex
 10
465.2549776397627
 20
1288.900482533678
 30
0.0
  0
VERTEX
  5
264
330
261
100
AcDbEntity
  8
Layer 1
370
     0
100
AcDbVertex
100
AcDb2dVertex
 10
465.2549776397627
 20
1298.900388943938
 30
0.0
  0
SEQEND
  5
265
330
261
100
AcDbEntity
  8
Layer 1
370
     0
  0
HATCH
  5
266
330
3C
100
AcDbEntity
  8
Layer 1
 62
     7
100
AcDbHatch
 10
0.0
 20
0.0
 30
0.0
210
0.0
220
0.0
230
1.0
  2
SOLID
 70
     1
 71
     0
 91
        1
 92
        1
 93
        3
 72
     1
 10
495.2548691253182
 20
1293.900177356647
 11
465.2549776397627
 21
1288.900482533678
 72
     1
 10
465.2549776397627
 20
1288.900482533678
 11
465.2549776397627
 21
1298.900388943938
 72
     1
 10
465.2549776397627
 20
1298.900388943938
 11
495.2548691253182
 21
1293.900177356647
 97
        0
 75
     2
 76
     1
 98
        0
  0
POLYLINE
  5
267
330
3C
100
AcDbEntity
  8
Layer 1
370
     0
100
AcDb2dPolyline
 66
     1
 10
0.0
 20
0.0
 30
0.0
  0
VERTEX
  5
268
330
267
100
AcDbEntity
  8
Layer 1
370
     0
100
AcDbVertex
100
AcDb2dVertex
 10
520.2545490235822
 20
1293.900177356647
 30
0.0
  0
VERTEX
  5
269
330
267
100
AcDbEntity
  8
Layer 1
370
     0
100
AcDbVertex
100
AcDb2dVertex
 10
550.2544405091378
 20
1298.900388943938
 30
0.0
  0
VERTEX
  5
26A
330
267
100
AcDbEntity
  8
Layer 1
370
     0
100
AcDbVertex
100
AcDb2dVertex
 10
550.2544405091378
 20
1288.900482533678
 30
0.0
  0
SEQEND
  5
26B
330
267
100
AcDbEntity
  8
Layer 1
370
     0
  0
HATCH
  5
26C
330
3C
100
AcDbEntity
  8
Layer 1
 62
     7
100
AcDbHatch
 10
0.0
 20
0.0
 30
0.0
210
0.0
220
0.0
230
1.0
  2
SOLID
 70
     1
 71
     0
 91
        1
 92
        1
 93
        3
 72
     1
 10
520.2545490235822
 20
1293.900177356647
 11
550.2544405091378
 21
1298.900388943938
 72
     1
 10
550.2544405091378
 20
1298.900388943938
 11
550.2544405091378
 21
1288.900482533678
 72
     1
 10
550.2544405091378
 20
1288.900482533678
 11
520.2545490235822
 21
1293.900177356647
 97
        0
 75
     2
 76
     1
 98
        0
  0
POLYLINE
  5
26D
330
3C
100
AcDbEntity
  8
Layer 1
 62
     7
370
    25
100
AcDb2dPolyline
 66
     1
 10
0.0
 20
0.0
 30
0.0
  0
VERTEX
  5
26E
330
26D
100
AcDbEntity
  8
Layer 1
 62
     7
370
    25
100
AcDbVertex
100
AcDb2dVertex
 10
495.2548691253182
 20
1174.843189539189
 30
0.0
  0
VERTEX
  5
26F
330
26D
100
AcDbEntity
  8
Layer 1
 62
     7
370
    25
100
AcDbVertex
100
AcDb2dVertex
 10
495.2548691253182
 20
1303.90060053123
 30
0.0
  0
SEQEND
  5
270
330
26D
100
AcDbEntity
  8
Layer 1
370
    25
  0
POLYLINE
  5
271
330
3C
100
AcDbEntity
  8
Layer 1
 62
     7
370
    25
100
AcDb2dPolyline
 66
     1
 10
0.0
 20
0.0
 30
0.0
  0
VERTEX
  5
272
330
271
100
AcDbEntity
  8
Layer 1
 62
     7
370
    25
100
AcDbVertex
100
AcDb2dVertex
 10
520.2545490235822
 20
1175.193383495264
 30
0.0
  0
VERTEX
  5
273
330
271
100
AcDbEntity
  8
Layer 1
 62
     7
370
    25
100
AcDbVertex
100
AcDb2dVertex
 10
520.2545490235822
 20
1303.90060053123
 30
0.0
  0
SEQEND
  5
274
330
271
100
AcDbEntity
  8
Layer 1
370
    25
  0
POLYLINE
  5
275
330
3C
100
AcDbEntity
  8
Layer 1
 62
     7
370
    25
100
AcDb2dPolyline
 66
     1
 10
0.0
 20
0.0
 30
0.0
  0
VERTEX
  5
276
330
275
100
AcDbEntity
  8
Layer 1
 62
     7
370
    25
100
AcDbVertex
100
AcDb2dVertex
 10
495.2548691253182
 20
1293.900177356647
 30
0.0
  0
VERTEX
  5
277
330
275
100
AcDbEntity
  8
Layer 1
 62
     7
370
    25
100
AcDbVertex
100
AcDb2dVertex
 10
435.2550861542071
 20
1293.900177356647
 30
0.0
  0
SEQEND
  5
278
330
275
100
AcDbEntity
  8
Layer 1
370
    25
  0
POLYLINE
  5
279
330
3C
100
AcDbEntity
  8
Layer 1
 62
     7
370
    25
100
AcDb2dPolyline
 66
     1
 10
0.0
 20
0.0
 30
0.0
  0
VERTEX
  5
27A
330
279
100
AcDbEntity
  8
Layer 1
 62
     7
370
    25
100
AcDbVertex
100
AcDb2dVertex
 10
495.2548691253182
 20
1293.900177356647
 30
0.0
  0
VERTEX
  5
27B
330
279
100
AcDbEntity
  8
Layer 1
 62
     7
370
    25
100
AcDbVertex
100
AcDb2dVertex
 10
520.2545490235822
 20
1293.900177356647
 30
0.0
  0
SEQEND
  5
27C
330
279
100
AcDbEntity
  8
Layer 1
370
    25
  0
POLYLINE
  5
27D
330
3C
100
AcDbEntity
  8
Layer 1
 62
     7
370
    25
100
AcDb2dPolyline
 66
     1
 10
0.0
 20
0.0
 30
0.0
  0
VERTEX
  5
27E
330
27D
100
AcDbEntity
  8
Layer 1
 62
     7
370
    25
100
AcDbVertex
100
AcDb2dVertex
 10
520.2545490235822
 20
1293.900177356647
 30
0.0
  0
VERTEX
  5
27F
330
27D
100
AcDbEntity
  8
Layer 1
 62
     7
370
    25
100
AcDbVertex
100
AcDb2dVertex
 10
634.302368005487
 20
1293.900177356647
 30
0.0
  0
SEQEND
  5
280
330
27D
100
AcDbEntity
  8
Layer 1
370
    25
  0
POLYLINE
  5
281
330
3C
100
AcDbEntity
  8
Layer 1
 62
     7
370
    25
100
AcDb2dPolyline
 66
     1
 10
0.0
 20
0.0
 30
0.0
  0
VERTEX
  5
282
330
281
100
AcDbEntity
  8
Layer 1
 62
     7
370
    25
100
AcDbVertex
100
AcDb2dVertex
 10
537.406301406447
 20
1341.415106543987
 30
0.0
  0
VERTEX
  5
283
330
281
100
AcDbEntity
  8
Layer 1
 62
     7
370
    25
100
AcDbVertex
100
AcDb2dVertex
 10
542.6979680717908
 20
1348.470834352552
 30
0.0
  0
SEQEND
  5
284
330
281
100
AcDbEntity
  8
Layer 1
370
    25
  0
POLYLINE
  5
285
330
3C
100
AcDbEntity
  8
Layer 1
 62
     7
370
    25
100
AcDb2dPolyline
 66
     1
 10
0.0
 20
0.0
 30
0.0
  0
VERTEX
  5
286
330
285
100
AcDbEntity
  8
Layer 1
 62
     7
370
    25
100
AcDbVertex
100
AcDb2dVertex
 10
542.6979680717908
 20
1348.470834352552
 30
0.0
  0
VERTEX
  5
287
330
285
100
AcDbEntity
  8
Layer 1
 62
     7
370
    25
100
AcDbVertex
100
AcDb2dVertex
 10
553.2813014024783
 20
1348.470834352552
 30
0.0
  0
SEQEND
  5
288
330
285
100
AcDbEntity
  8
Layer 1
370
    25
  0
POLYLINE
  5
289
330
3C
100
AcDbEntity
  8
Layer 1
 62
     7
370
    25
100
AcDb2dPolyline
 66
     1
 10
0.0
 20
0.0
 30
0.0
  0
VERTEX
  5
28A
330
289
100
AcDbEntity
  8
Layer 1
 62
     7
370
    25
100
AcDbVertex
100
AcDb2dVertex
 10
553.2813014024783
 20
1348.470834352552
 30
0.0
  0
VERTEX
  5
28B
330
289
100
AcDbEntity
  8
Layer 1
 62
     7
370
    25
100
AcDbVertex
100
AcDb2dVertex
 10
558.5736570869191
 20
1341.415106543987
 30
0.0
  0
SEQEND
  5
28C
330
289
100
AcDbEntity
  8
Layer 1
370
    25
  0
POLYLINE
  5
28D
330
3C
100
AcDbEntity
  8
Layer 1
 62
     7
370
    25
100
AcDb2dPolyline
 66
     1
 10
0.0
 20
0.0
 30
0.0
  0
VERTEX
  5
28E
330
28D
100
AcDbEntity
  8
Layer 1
 62
     7
370
    25
100
AcDbVertex
100
AcDb2dVertex
 10
558.5736570869191
 20
1341.415106543987
 30
0.0
  0
VERTEX
  5
28F
330
28D
100
AcDbEntity
  8
Layer 1
 62
     7
370
    25
100
AcDbVertex
100
AcDb2dVertex
 10
558.5736570869191
 20
1334.359723244969
 30
0.0
  0
SEQEND
  5
290
330
28D
100
AcDbEntity
  8
Layer 1
370
    25
  0
POLYLINE
  5
291
330
3C
100
AcDbEntity
  8
Layer 1
 62
     7
370
    25
100
AcDb2dPolyline
 66
     1
 10
0.0
 20
0.0
 30
0.0
  0
VERTEX
  5
292
330
291
100
AcDbEntity
  8
Layer 1
 62
     7
370
    25
100
AcDbVertex
100
AcDb2dVertex
 10
558.5736570869191
 20
1334.359723244969
 30
0.0
  0
VERTEX
  5
293
330
291
100
AcDbEntity
  8
Layer 1
 62
     7
370
    25
100
AcDbVertex
100
AcDb2dVertex
 10
553.2813014024783
 20
1327.304339945952
 30
0.0
  0
SEQEND
  5
294
330
291
100
AcDbEntity
  8
Layer 1
370
    25
  0
POLYLINE
  5
295
330
3C
100
AcDbEntity
  8
Layer 1
 62
     7
370
    25
100
AcDb2dPolyline
 66
     1
 10
0.0
 20
0.0
 30
0.0
  0
VERTEX
  5
296
330
295
100
AcDbEntity
  8
Layer 1
 62
     7
370
    25
100
AcDbVertex
100
AcDb2dVertex
 10
553.2813014024783
 20
1327.304339945952
 30
0.0
  0
VERTEX
  5
297
330
295
100
AcDbEntity
  8
Layer 1
 62
     7
370
    25
100
AcDbVertex
100
AcDb2dVertex
 10
542.6979680717908
 20
1327.304339945952
 30
0.0
  0
SEQEND
  5
298
330
295
100
AcDbEntity
  8
Layer 1
370
    25
  0
POLYLINE
  5
299
330
3C
100
AcDbEntity
  8
Layer 1
 62
     7
370
    25
100
AcDb2dPolyline
 66
     1
 10
0.0
 20
0.0
 30
0.0
  0
VERTEX
  5
29A
330
299
100
AcDbEntity
  8
Layer 1
 62
     7
370
    25
100
AcDbVertex
100
AcDb2dVertex
 10
542.6979680717908
 20
1327.304339945952
 30
0.0
  0
VERTEX
  5
29B
330
299
100
AcDbEntity
  8
Layer 1
 62
     7
370
    25
100
AcDbVertex
100
AcDb2dVertex
 10
537.406301406447
 20
1320.248612137386
 30
0.0
  0
SEQEND
  5
29C
330
299
100
AcDbEntity
  8
Layer 1
370
    25
  0
POLYLINE
  5
29D
330
3C
100
AcDbEntity
  8
Layer 1
 62
     7
370
    25
100
AcDb2dPolyline
 66
     1
 10
0.0
 20
0.0
 30
0.0
  0
VERTEX
  5
29E
330
29D
100
AcDbEntity
  8
Layer 1
 62
     7
370
    25
100
AcDbVertex
100
AcDb2dVertex
 10
537.406301406447
 20
1320.248612137386
 30
0.0
  0
VERTEX
  5
29F
330
29D
100
AcDbEntity
  8
Layer 1
 62
     7
370
    25
100
AcDbVertex
100
AcDb2dVertex
 10
537.406301406447
 20
1306.137501029802
 30
0.0
  0
SEQEND
  5
2A0
330
29D
100
AcDbEntity
  8
Layer 1
370
    25
  0
POLYLINE
  5
2A1
330
3C
100
AcDbEntity
  8
Layer 1
 62
     7
370
    25
100
AcDb2dPolyline
 66
     1
 10
0.0
 20
0.0
 30
0.0
  0
VERTEX
  5
2A2
330
2A1
100
AcDbEntity
  8
Layer 1
 62
     7
370
    25
100
AcDbVertex
100
AcDb2dVertex
 10
537.406301406447
 20
1306.137501029802
 30
0.0
  0
VERTEX
  5
2A3
330
2A1
100
AcDbEntity
  8
Layer 1
 62
     7
370
    25
100
AcDbVertex
100
AcDb2dVertex
 10
558.5736570869191
 20
1306.137501029802
 30
0.0
  0
SEQEND
  5
2A4
330
2A1
100
AcDbEntity
  8
Layer 1
370
    25
  0
POLYLINE
  5
2A5
330
3C
100
AcDbEntity
  8
Layer 1
 62
     7
370
    25
100
AcDb2dPolyline
 66
     1
 10
0.0
 20
0.0
 30
0.0
  0
VERTEX
  5
2A6
330
2A5
100
AcDbEntity
  8
Layer 1
 62
     7
370
    25
100
AcDbVertex
100
AcDb2dVertex
 10
569.1556123794126
 20
1313.193228838368
 30
0.0
  0
VERTEX
  5
2A7
330
2A5
100
AcDbEntity
  8
Layer 1
 62
     7
370
    25
100
AcDbVertex
100
AcDb2dVertex
 10
574.4486570829504
 20
1306.137501029802
 30
0.0
  0
SEQEND
  5
2A8
330
2A5
100
AcDbEntity
  8
Layer 1
370
    25
  0
POLYLINE
  5
2A9
330
3C
100
AcDbEntity
  8
Layer 1
 62
     7
370
    25
100
AcDb2dPolyline
 66
     1
 10
0.0
 20
0.0
 30
0.0
  0
VERTEX
  5
2AA
330
2A9
100
AcDbEntity
  8
Layer 1
 62
     7
370
    25
100
AcDbVertex
100
AcDb2dVertex
 10
574.4486570829504
 20
1306.137501029802
 30
0.0
  0
VERTEX
  5
2AB
330
2A9
100
AcDbEntity
  8
Layer 1
 62
     7
370
    25
100
AcDbVertex
100
AcDb2dVertex
 10
585.0313013945408
 20
1306.137501029802
 30
0.0
  0
SEQEND
  5
2AC
330
2A9
100
AcDbEntity
  8
Layer 1
370
    25
  0
POLYLINE
  5
2AD
330
3C
100
AcDbEntity
  8
Layer 1
 62
     7
370
    25
100
AcDb2dPolyline
 66
     1
 10
0.0
 20
0.0
 30
0.0
  0
VERTEX
  5
2AE
330
2AD
100
AcDbEntity
  8
Layer 1
 62
     7
370
    25
100
AcDbVertex
100
AcDb2dVertex
 10
585.0313013945408
 20
1306.137501029802
 30
0.0
  0
VERTEX
  5
2AF
330
2AD
100
AcDbEntity
  8
Layer 1
 62
     7
370
    25
100
AcDbVertex
100
AcDb2dVertex
 10
590.3229680598846
 20
1313.193228838368
 30
0.0
  0
SEQEND
  5
2B0
330
2AD
100
AcDbEntity
  8
Layer 1
370
    25
  0
POLYLINE
  5
2B1
330
3C
100
AcDbEntity
  8
Layer 1
 62
     7
370
    25
100
AcDb2dPolyline
 66
     1
 10
0.0
 20
0.0
 30
0.0
  0
VERTEX
  5
2B2
330
2B1
100
AcDbEntity
  8
Layer 1
 62
     7
370
    25
100
AcDbVertex
100
AcDb2dVertex
 10
590.3229680598846
 20
1313.193228838368
 30
0.0
  0
VERTEX
  5
2B3
330
2B1
100
AcDbEntity
  8
Layer 1
 62
     7
370
    25
100
AcDbVertex
100
AcDb2dVertex
 10
590.3229680598846
 20
1327.304339945952
 30
0.0
  0
SEQEND
  5
2B4
330
2B1
100
AcDbEntity
  8
Layer 1
370
    25
  0
POLYLINE
  5
2B5
330
3C
100
AcDbEntity
  8
Layer 1
 62
     7
370
    25
100
AcDb2dPolyline
 66
     1
 10
0.0
 20
0.0
 30
0.0
  0
VERTEX
  5
2B6
330
2B5
100
AcDbEntity
  8
Layer 1
 62
     7
370
    25
100
AcDbVertex
100
AcDb2dVertex
 10
590.3229680598846
 20
1327.304339945952
 30
0.0
  0
VERTEX
  5
2B7
330
2B5
100
AcDbEntity
  8
Layer 1
 62
     7
370
    25
100
AcDbVertex
100
AcDb2dVertex
 10
585.0313013945408
 20
1334.359723244969
 30
0.0
  0
SEQEND
  5
2B8
330
2B5
100
AcDbEntity
  8
Layer 1
370
    25
  0
POLYLINE
  5
2B9
330
3C
100
AcDbEntity
  8
Layer 1
 62
     7
370
    25
100
AcDb2dPolyline
 66
     1
 10
0.0
 20
0.0
 30
0.0
  0
VERTEX
  5
2BA
330
2B9
100
AcDbEntity
  8
Layer 1
 62
     7
370
    25
100
AcDbVertex
100
AcDb2dVertex
 10
585.0313013945408
 20
1334.359723244969
 30
0.0
  0
VERTEX
  5
2BB
330
2B9
100
AcDbEntity
  8
Layer 1
 62
     7
370
    25
100
AcDbVertex
100
AcDb2dVertex
 10
569.1556123794126
 20
1334.359723244969
 30
0.0
  0
SEQEND
  5
2BC
330
2B9
100
AcDbEntity
  8
Layer 1
370
    25
  0
POLYLINE
  5
2BD
330
3C
100
AcDbEntity
  8
Layer 1
 62
     7
370
    25
100
AcDb2dPolyline
 66
     1
 10
0.0
 20
0.0
 30
0.0
  0
VERTEX
  5
2BE
330
2BD
100
AcDbEntity
  8
Layer 1
 62
     7
370
    25
100
AcDbVertex
100
AcDb2dVertex
 10
569.1556123794126
 20
1334.359723244969
 30
0.0
  0
VERTEX
  5
2BF
330
2BD
100
AcDbEntity
  8
Layer 1
 62
     7
370
    25
100
AcDbVertex
100
AcDb2dVertex
 10
569.1556123794126
 20
1348.470834352552
 30
0.0
  0
SEQEND
  5
2C0
330
2BD
100
AcDbEntity
  8
Layer 1
370
    25
  0
POLYLINE
  5
2C1
330
3C
100
AcDbEntity
  8
Layer 1
 62
     7
370
    25
100
AcDb2dPolyline
 66
     1
 10
0.0
 20
0.0
 30
0.0
  0
VERTEX
  5
2C2
330
2C1
100
AcDbEntity
  8
Layer 1
 62
     7
370
    25
100
AcDbVertex
100
AcDb2dVertex
 10
569.1556123794126
 20
1348.470834352552
 30
0.0
  0
VERTEX
  5
2C3
330
2C1
100
AcDbEntity
  8
Layer 1
 62
     7
370
    25
100
AcDbVertex
100
AcDb2dVertex
 10
590.3229680598846
 20
1348.470834352552
 30
0.0
  0
SEQEND
  5
2C4
330
2C1
100
AcDbEntity
  8
Layer 1
370
    25
  0
POLYLINE
  5
2C5
330
3C
100
AcDbEntity
  8
Layer 1
370
     0
100
AcDb2dPolyline
 66
     1
 10
0.0
 20
0.0
 30
0.0
  0
VERTEX
  5
2C6
330
2C5
100
AcDbEntity
  8
Layer 1
370
     0
100
AcDbVertex
100
AcDb2dVertex
 10
0.254937065908488
 20
510.6496228107057
 30
0.0
  0
VERTEX
  5
2C7
330
2C5
100
AcDbEntity
  8
Layer 1
370
     0
100
AcDbVertex
100
AcDb2dVertex
 10
30.25500080623834
 20
515.6494898884488
 30
0.0
  0
VERTEX
  5
2C8
330
2C5
100
AcDbEntity
  8
Layer 1
370
     0
100
AcDbVertex
100
AcDb2dVertex
 10
30.25500080623834
 20
505.6497557329626
 30
0.0
  0
SEQEND
  5
2C9
330
2C5
100
AcDbEntity
  8
Layer 1
370
     0
  0
HATCH
  5
2CA
330
3C
100
AcDbEntity
  8
Layer 1
 62
     7
100
AcDbHatch
 10
0.0
 20
0.0
 30
0.0
210
0.0
220
0.0
230
1.0
  2
SOLID
 70
     1
 71
     0
 91
        1
 92
        1
 93
        3
 72
     1
 10
0.254937065908488
 20
510.6496228107057
 11
30.25500080623834
 21
515.6494898884488
 72
     1
 10
30.25500080623834
 20
515.6494898884488
 11
30.25500080623834
 21
505.6497557329626
 72
     1
 10
30.25500080623834
 20
505.6497557329626
 11
0.254937065908488
 21
510.6496228107057
 97
        0
 75
     2
 76
     1
 98
        0
  0
POLYLINE
  5
2CB
330
3C
100
AcDbEntity
  8
Layer 1
370
     0
100
AcDb2dPolyline
 66
     1
 10
0.0
 20
0.0
 30
0.0
  0
VERTEX
  5
2CC
330
2CB
100
AcDbEntity
  8
Layer 1
370
     0
100
AcDbVertex
100
AcDb2dVertex
 10
260.2543985351969
 20
510.6496228107057
 30
0.0
  0
VERTEX
  5
2CD
330
2CB
100
AcDbEntity
  8
Layer 1
370
     0
100
AcDbVertex
100
AcDb2dVertex
 10
230.2545070496412
 20
505.6497557329626
 30
0.0
  0
VERTEX
  5
2CE
330
2CB
100
AcDbEntity
  8
Layer 1
370
     0
100
AcDbVertex
100
AcDb2dVertex
 10
230.2545070496412
 20
515.6494898884488
 30
0.0
  0
SEQEND
  5
2CF
330
2CB
100
AcDbEntity
  8
Layer 1
370
     0
  0
HATCH
  5
2D0
330
3C
100
AcDbEntity
  8
Layer 1
 62
     7
100
AcDbHatch
 10
0.0
 20
0.0
 30
0.0
210
0.0
220
0.0
230
1.0
  2
SOLID
 70
     1
 71
     0
 91
        1
 92
        1
 93
        3
 72
     1
 10
260.2543985351969
 20
510.6496228107057
 11
230.2545070496412
 21
505.6497557329626
 72
     1
 10
230.2545070496412
 20
505.6497557329626
 11
230.2545070496412
 21
515.6494898884488
 72
     1
 10
230.2545070496412
 20
515.6494898884488
 11
260.2543985351969
 21
510.6496228107057
 97
        0
 75
     2
 76
     1
 98
        0
  0
POLYLINE
  5
2D1
330
3C
100
AcDbEntity
  8
Layer 1
 62
     7
370
    25
100
AcDb2dPolyline
 66
     1
 10
0.0
 20
0.0
 30
0.0
  0
VERTEX
  5
2D2
330
2D1
100
AcDbEntity
  8
Layer 1
 62
     7
370
    25
100
AcDbVertex
100
AcDb2dVertex
 10
0.254937065908488
 20
582.7702852275713
 30
0.0
  0
VERTEX
  5
2D3
330
2D1
100
AcDbEntity
  8
Layer 1
 62
     7
370
    25
100
AcDbVertex
100
AcDb2dVertex
 10
0.254937065908488
 20
500.6491996361224
 30
0.0
  0
SEQEND
  5
2D4
330
2D1
100
AcDbEntity
  8
Layer 1
370
    25
  0
POLYLINE
  5
2D5
330
3C
100
AcDbEntity
  8
Layer 1
 62
     7
370
    25
100
AcDb2dPolyline
 66
     1
 10
0.0
 20
0.0
 30
0.0
  0
VERTEX
  5
2D6
330
2D5
100
AcDbEntity
  8
Layer 1
 62
     7
370
    25
100
AcDbVertex
100
AcDb2dVertex
 10
260.2543985351969
 20
584.8941865942279
 30
0.0
  0
VERTEX
  5
2D7
330
2D5
100
AcDbEntity
  8
Layer 1
 62
     7
370
    25
100
AcDbVertex
100
AcDb2dVertex
 10
260.2543985351969
 20
500.6491996361224
 30
0.0
  0
SEQEND
  5
2D8
330
2D5
100
AcDbEntity
  8
Layer 1
370
    25
  0
POLYLINE
  5
2D9
330
3C
100
AcDbEntity
  8
Layer 1
 62
     7
370
    25
100
AcDb2dPolyline
 66
     1
 10
0.0
 20
0.0
 30
0.0
  0
VERTEX
  5
2DA
330
2D9
100
AcDbEntity
  8
Layer 1
 62
     7
370
    25
100
AcDbVertex
100
AcDb2dVertex
 10
0.254937065908488
 20
510.6496228107057
 30
0.0
  0
VERTEX
  5
2DB
330
2D9
100
AcDbEntity
  8
Layer 1
 62
     7
370
    25
100
AcDbVertex
100
AcDb2dVertex
 10
260.2543985351969
 20
510.6496228107057
 30
0.0
  0
SEQEND
  5
2DC
330
2D9
100
AcDbEntity
  8
Layer 1
370
    25
  0
POLYLINE
  5
2DD
330
3C
100
AcDbEntity
  8
Layer 1
 62
     7
370
    25
100
AcDb2dPolyline
 66
     1
 10
0.0
 20
0.0
 30
0.0
  0
VERTEX
  5
2DE
330
2DD
100
AcDbEntity
  8
Layer 1
 62
     7
370
    25
100
AcDbVertex
100
AcDb2dVertex
 10
64.97897947594277
 20
558.1643797432714
 30
0.0
  0
VERTEX
  5
2DF
330
2DD
100
AcDbEntity
  8
Layer 1
 62
     7
370
    25
100
AcDbVertex
100
AcDb2dVertex
 10
70.2706461412865
 20
565.2199352970631
 30
0.0
  0
SEQEND
  5
2E0
330
2DD
100
AcDbEntity
  8
Layer 1
370
    25
  0
POLYLINE
  5
2E1
330
3C
100
AcDbEntity
  8
Layer 1
 62
     7
370
    25
100
AcDb2dPolyline
 66
     1
 10
0.0
 20
0.0
 30
0.0
  0
VERTEX
  5
2E2
330
2E1
100
AcDbEntity
  8
Layer 1
 62
     7
370
    25
100
AcDbVertex
100
AcDb2dVertex
 10
70.2706461412865
 20
565.2199352970631
 30
0.0
  0
VERTEX
  5
2E3
330
2E1
100
AcDbEntity
  8
Layer 1
 62
     7
370
    25
100
AcDbVertex
100
AcDb2dVertex
 10
80.85415172674827
 20
565.2199352970631
 30
0.0
  0
SEQEND
  5
2E4
330
2E1
100
AcDbEntity
  8
Layer 1
370
    25
  0
POLYLINE
  5
2E5
330
3C
100
AcDbEntity
  8
Layer 1
 62
     7
370
    25
100
AcDb2dPolyline
 66
     1
 10
0.0
 20
0.0
 30
0.0
  0
VERTEX
  5
2E6
330
2E5
100
AcDbEntity
  8
Layer 1
 62
     7
370
    25
100
AcDbVertex
100
AcDb2dVertex
 10
80.85415172674827
 20
565.2199352970631
 30
0.0
  0
VERTEX
  5
2E7
330
2E5
100
AcDbEntity
  8
Layer 1
 62
     7
370
    25
100
AcDbVertex
100
AcDb2dVertex
 10
86.1454738825435
 20
558.1643797432714
 30
0.0
  0
SEQEND
  5
2E8
330
2E5
100
AcDbEntity
  8
Layer 1
370
    25
  0
POLYLINE
  5
2E9
330
3C
100
AcDbEntity
  8
Layer 1
 62
     7
370
    25
100
AcDb2dPolyline
 66
     1
 10
0.0
 20
0.0
 30
0.0
  0
VERTEX
  5
2EA
330
2E9
100
AcDbEntity
  8
Layer 1
 62
     7
370
    25
100
AcDbVertex
100
AcDb2dVertex
 10
86.1454738825435
 20
558.1643797432714
 30
0.0
  0
VERTEX
  5
2EB
330
2E9
100
AcDbEntity
  8
Layer 1
 62
     7
370
    25
100
AcDbVertex
100
AcDb2dVertex
 10
86.1454738825435
 20
551.1091686990283
 30
0.0
  0
SEQEND
  5
2EC
330
2E9
100
AcDbEntity
  8
Layer 1
370
    25
  0
POLYLINE
  5
2ED
330
3C
100
AcDbEntity
  8
Layer 1
 62
     7
370
    25
100
AcDb2dPolyline
 66
     1
 10
0.0
 20
0.0
 30
0.0
  0
VERTEX
  5
2EE
330
2ED
100
AcDbEntity
  8
Layer 1
 62
     7
370
    25
100
AcDbVertex
100
AcDb2dVertex
 10
86.1454738825435
 20
551.1091686990283
 30
0.0
  0
VERTEX
  5
2EF
330
2ED
100
AcDbEntity
  8
Layer 1
 62
     7
370
    25
100
AcDbVertex
100
AcDb2dVertex
 10
80.85415172674827
 20
544.0529241261396
 30
0.0
  0
SEQEND
  5
2F0
330
2ED
100
AcDbEntity
  8
Layer 1
370
    25
  0
POLYLINE
  5
2F1
330
3C
100
AcDbEntity
  8
Layer 1
 62
     7
370
    25
100
AcDb2dPolyline
 66
     1
 10
0.0
 20
0.0
 30
0.0
  0
VERTEX
  5
2F2
330
2F1
100
AcDbEntity
  8
Layer 1
 62
     7
370
    25
100
AcDbVertex
100
AcDb2dVertex
 10
80.85415172674827
 20
544.0529241261396
 30
0.0
  0
VERTEX
  5
2F3
330
2F1
100
AcDbEntity
  8
Layer 1
 62
     7
370
    25
100
AcDbVertex
100
AcDb2dVertex
 10
70.2706461412865
 20
544.0529241261396
 30
0.0
  0
SEQEND
  5
2F4
330
2F1
100
AcDbEntity
  8
Layer 1
370
    25
  0
POLYLINE
  5
2F5
330
3C
100
AcDbEntity
  8
Layer 1
 62
     7
370
    25
100
AcDb2dPolyline
 66
     1
 10
0.0
 20
0.0
 30
0.0
  0
VERTEX
  5
2F6
330
2F5
100
AcDbEntity
  8
Layer 1
 62
     7
370
    25
100
AcDbVertex
100
AcDb2dVertex
 10
70.2706461412865
 20
544.0529241261396
 30
0.0
  0
VERTEX
  5
2F7
330
2F5
100
AcDbEntity
  8
Layer 1
 62
     7
370
    25
100
AcDbVertex
100
AcDb2dVertex
 10
64.97897947594277
 20
536.9977130818964
 30
0.0
  0
SEQEND
  5
2F8
330
2F5
100
AcDbEntity
  8
Layer 1
370
    25
  0
POLYLINE
  5
2F9
330
3C
100
AcDbEntity
  8
Layer 1
 62
     7
370
    25
100
AcDb2dPolyline
 66
     1
 10
0.0
 20
0.0
 30
0.0
  0
VERTEX
  5
2FA
330
2F9
100
AcDbEntity
  8
Layer 1
 62
     7
370
    25
100
AcDbVertex
100
AcDb2dVertex
 10
64.97897947594277
 20
536.9977130818964
 30
0.0
  0
VERTEX
  5
2FB
330
2F9
100
AcDbEntity
  8
Layer 1
 62
     7
370
    25
100
AcDbVertex
100
AcDb2dVertex
 10
64.97897947594277
 20
522.8869464838616
 30
0.0
  0
SEQEND
  5
2FC
330
2F9
100
AcDbEntity
  8
Layer 1
370
    25
  0
POLYLINE
  5
2FD
330
3C
100
AcDbEntity
  8
Layer 1
 62
     7
370
    25
100
AcDb2dPolyline
 66
     1
 10
0.0
 20
0.0
 30
0.0
  0
VERTEX
  5
2FE
330
2FD
100
AcDbEntity
  8
Layer 1
 62
     7
370
    25
100
AcDbVertex
100
AcDb2dVertex
 10
64.97897947594277
 20
522.8869464838616
 30
0.0
  0
VERTEX
  5
2FF
330
2FD
100
AcDbEntity
  8
Layer 1
 62
     7
370
    25
100
AcDbVertex
100
AcDb2dVertex
 10
86.1454738825435
 20
522.8869464838616
 30
0.0
  0
SEQEND
  5
300
330
2FD
100
AcDbEntity
  8
Layer 1
370
    25
  0
POLYLINE
  5
301
330
3C
100
AcDbEntity
  8
Layer 1
 62
     7
370
    25
100
AcDb2dPolyline
 66
     1
 10
0.0
 20
0.0
 30
0.0
  0
VERTEX
  5
302
330
301
100
AcDbEntity
  8
Layer 1
 62
     7
370
    25
100
AcDbVertex
100
AcDb2dVertex
 10
96.72897946800526
 20
544.0529241261396
 30
0.0
  0
VERTEX
  5
303
330
301
100
AcDbEntity
  8
Layer 1
 62
     7
370
    25
100
AcDbVertex
100
AcDb2dVertex
 10
112.603634954488
 20
544.0529241261396
 30
0.0
  0
SEQEND
  5
304
330
301
100
AcDbEntity
  8
Layer 1
370
    25
  0
POLYLINE
  5
305
330
3C
100
AcDbEntity
  8
Layer 1
 62
     7
370
    25
100
AcDb2dPolyline
 66
     1
 10
0.0
 20
0.0
 30
0.0
  0
VERTEX
  5
306
330
305
100
AcDbEntity
  8
Layer 1
 62
     7
370
    25
100
AcDbVertex
100
AcDb2dVertex
 10
112.603634954488
 20
544.0529241261396
 30
0.0
  0
VERTEX
  5
307
330
305
100
AcDbEntity
  8
Layer 1
 62
     7
370
    25
100
AcDbVertex
100
AcDb2dVertex
 10
117.8953016198317
 20
536.9977130818964
 30
0.0
  0
SEQEND
  5
308
330
305
100
AcDbEntity
  8
Layer 1
370
    25
  0
POLYLINE
  5
309
330
3C
100
AcDbEntity
  8
Layer 1
 62
     7
370
    25
100
AcDb2dPolyline
 66
     1
 10
0.0
 20
0.0
 30
0.0
  0
VERTEX
  5
30A
330
309
100
AcDbEntity
  8
Layer 1
 62
     7
370
    25
100
AcDbVertex
100
AcDb2dVertex
 10
117.8953016198317
 20
536.9977130818964
 30
0.0
  0
VERTEX
  5
30B
330
309
100
AcDbEntity
  8
Layer 1
 62
     7
370
    25
100
AcDbVertex
100
AcDb2dVertex
 10
117.8953016198317
 20
529.9421575281048
 30
0.0
  0
SEQEND
  5
30C
330
309
100
AcDbEntity
  8
Layer 1
370
    25
  0
POLYLINE
  5
30D
330
3C
100
AcDbEntity
  8
Layer 1
 62
     7
370
    25
100
AcDb2dPolyline
 66
     1
 10
0.0
 20
0.0
 30
0.0
  0
VERTEX
  5
30E
330
30D
100
AcDbEntity
  8
Layer 1
 62
     7
370
    25
100
AcDbVertex
100
AcDb2dVertex
 10
117.8953016198317
 20
529.9421575281048
 30
0.0
  0
VERTEX
  5
30F
330
30D
100
AcDbEntity
  8
Layer 1
 62
     7
370
    25
100
AcDbVertex
100
AcDb2dVertex
 10
112.603634954488
 20
522.8869464838616
 30
0.0
  0
SEQEND
  5
310
330
30D
100
AcDbEntity
  8
Layer 1
370
    25
  0
POLYLINE
  5
311
330
3C
100
AcDbEntity
  8
Layer 1
 62
     7
370
    25
100
AcDb2dPolyline
 66
     1
 10
0.0
 20
0.0
 30
0.0
  0
VERTEX
  5
312
330
311
100
AcDbEntity
  8
Layer 1
 62
     7
370
    25
100
AcDbVertex
100
AcDb2dVertex
 10
112.603634954488
 20
522.8869464838616
 30
0.0
  0
VERTEX
  5
313
330
311
100
AcDbEntity
  8
Layer 1
 62
     7
370
    25
100
AcDbVertex
100
AcDb2dVertex
 10
102.020646133349
 20
522.8869464838616
 30
0.0
  0
SEQEND
  5
314
330
311
100
AcDbEntity
  8
Layer 1
370
    25
  0
POLYLINE
  5
315
330
3C
100
AcDbEntity
  8
Layer 1
 62
     7
370
    25
100
AcDb2dPolyline
 66
     1
 10
0.0
 20
0.0
 30
0.0
  0
VERTEX
  5
316
330
315
100
AcDbEntity
  8
Layer 1
 62
     7
370
    25
100
AcDbVertex
100
AcDb2dVertex
 10
102.020646133349
 20
522.8869464838616
 30
0.0
  0
VERTEX
  5
317
330
315
100
AcDbEntity
  8
Layer 1
 62
     7
370
    25
100
AcDbVertex
100
AcDb2dVertex
 10
96.72897946800526
 20
529.9421575281048
 30
0.0
  0
SEQEND
  5
318
330
315
100
AcDbEntity
  8
Layer 1
370
    25
  0
POLYLINE
  5
319
330
3C
100
AcDbEntity
  8
Layer 1
 62
     7
370
    25
100
AcDb2dPolyline
 66
     1
 10
0.0
 20
0.0
 30
0.0
  0
VERTEX
  5
31A
330
319
100
AcDbEntity
  8
Layer 1
 62
     7
370
    25
100
AcDbVertex
100
AcDb2dVertex
 10
96.72897946800526
 20
529.9421575281048
 30
0.0
  0
VERTEX
  5
31B
330
319
100
AcDbEntity
  8
Layer 1
 62
     7
370
    25
100
AcDbVertex
100
AcDb2dVertex
 10
96.72897946800526
 20
551.1091686990283
 30
0.0
  0
SEQEND
  5
31C
330
319
100
AcDbEntity
  8
Layer 1
370
    25
  0
POLYLINE
  5
31D
330
3C
100
AcDbEntity
  8
Layer 1
 62
     7
370
    25
100
AcDb2dPolyline
 66
     1
 10
0.0
 20
0.0
 30
0.0
  0
VERTEX
  5
31E
330
31D
100
AcDbEntity
  8
Layer 1
 62
     7
370
    25
100
AcDbVertex
100
AcDb2dVertex
 10
96.72897946800526
 20
551.1091686990283
 30
0.0
  0
VERTEX
  5
31F
330
31D
100
AcDbEntity
  8
Layer 1
 62
     7
370
    25
100
AcDbVertex
100
AcDb2dVertex
 10
107.3123127986928
 20
565.2199352970631
 30
0.0
  0
SEQEND
  5
320
330
31D
100
AcDbEntity
  8
Layer 1
370
    25
  0
POLYLINE
  5
321
330
3C
100
AcDbEntity
  8
Layer 1
 62
     7
370
    25
100
AcDb2dPolyline
 66
     1
 10
0.0
 20
0.0
 30
0.0
  0
VERTEX
  5
322
330
321
100
AcDbEntity
  8
Layer 1
 62
     7
370
    25
100
AcDbVertex
100
AcDb2dVertex
 10
107.3123127986928
 20
565.2199352970631
 30
0.0
  0
VERTEX
  5
323
330
321
100
AcDbEntity
  8
Layer 1
 62
     7
370
    25
100
AcDbVertex
100
AcDb2dVertex
 10
112.603634954488
 20
565.2199352970631
 30
0.0
  0
SEQEND
  5
324
330
321
100
AcDbEntity
  8
Layer 1
370
    25
  0
POLYLINE
  5
325
330
3C
100
AcDbEntity
  8
Layer 1
 62
     7
370
    25
100
AcDb2dPolyline
 66
     1
 10
0.0
 20
0.0
 30
0.0
  0
VERTEX
  5
326
330
325
100
AcDbEntity
  8
Layer 1
 62
     7
370
    25
100
AcDbVertex
100
AcDb2dVertex
 10
133.7704738706373
 20
522.8869464838616
 30
0.0
  0
VERTEX
  5
327
330
325
100
AcDbEntity
  8
Layer 1
 62
     7
370
    25
100
AcDbVertex
100
AcDb2dVertex
 10
128.4788072052935
 20
529.9421575281048
 30
0.0
  0
SEQEND
  5
328
330
325
100
AcDbEntity
  8
Layer 1
370
    25
  0
POLYLINE
  5
329
330
3C
100
AcDbEntity
  8
Layer 1
 62
     7
370
    25
100
AcDb2dPolyline
 66
     1
 10
0.0
 20
0.0
 30
0.0
  0
VERTEX
  5
32A
330
329
100
AcDbEntity
  8
Layer 1
 62
     7
370
    25
100
AcDbVertex
100
AcDb2dVertex
 10
128.4788072052935
 20
529.9421575281048
 30
0.0
  0
VERTEX
  5
32B
330
329
100
AcDbEntity
  8
Layer 1
 62
     7
370
    25
100
AcDbVertex
100
AcDb2dVertex
 10
128.4788072052935
 20
558.1643797432714
 30
0.0
  0
SEQEND
  5
32C
330
329
100
AcDbEntity
  8
Layer 1
370
    25
  0
POLYLINE
  5
32D
330
3C
100
AcDbEntity
  8
Layer 1
 62
     7
370
    25
100
AcDb2dPolyline
 66
     1
 10
0.0
 20
0.0
 30
0.0
  0
VERTEX
  5
32E
330
32D
100
AcDbEntity
  8
Layer 1
 62
     7
370
    25
100
AcDbVertex
100
AcDb2dVertex
 10
128.4788072052935
 20
558.1643797432714
 30
0.0
  0
VERTEX
  5
32F
330
32D
100
AcDbEntity
  8
Layer 1
 62
     7
370
    25
100
AcDbVertex
100
AcDb2dVertex
 10
133.7704738706373
 20
565.2199352970631
 30
0.0
  0
SEQEND
  5
330
330
32D
100
AcDbEntity
  8
Layer 1
370
    25
  0
POLYLINE
  5
331
330
3C
100
AcDbEntity
  8
Layer 1
 62
     7
370
    25
100
AcDb2dPolyline
 66
     1
 10
0.0
 20
0.0
 30
0.0
  0
VERTEX
  5
332
330
331
100
AcDbEntity
  8
Layer 1
 62
     7
370
    25
100
AcDbVertex
100
AcDb2dVertex
 10
133.7704738706373
 20
565.2199352970631
 30
0.0
  0
VERTEX
  5
333
330
331
100
AcDbEntity
  8
Layer 1
 62
     7
370
    25
100
AcDbVertex
100
AcDb2dVertex
 10
139.0623127907553
 20
565.2199352970631
 30
0.0
  0
SEQEND
  5
334
330
331
100
AcDbEntity
  8
Layer 1
370
    25
  0
POLYLINE
  5
335
330
3C
100
AcDbEntity
  8
Layer 1
 62
     7
370
    25
100
AcDb2dPolyline
 66
     1
 10
0.0
 20
0.0
 30
0.0
  0
VERTEX
  5
336
330
335
100
AcDbEntity
  8
Layer 1
 62
     7
370
    25
100
AcDbVertex
100
AcDb2dVertex
 10
139.0623127907553
 20
565.2199352970631
 30
0.0
  0
VERTEX
  5
337
330
335
100
AcDbEntity
  8
Layer 1
 62
     7
370
    25
100
AcDbVertex
100
AcDb2dVertex
 10
144.353979456099
 20
558.1643797432714
 30
0.0
  0
SEQEND
  5
338
330
335
100
AcDbEntity
  8
Layer 1
370
    25
  0
POLYLINE
  5
339
330
3C
100
AcDbEntity
  8
Layer 1
 62
     7
370
    25
100
AcDb2dPolyline
 66
     1
 10
0.0
 20
0.0
 30
0.0
  0
VERTEX
  5
33A
330
339
100
AcDbEntity
  8
Layer 1
 62
     7
370
    25
100
AcDbVertex
100
AcDb2dVertex
 10
144.353979456099
 20
558.1643797432714
 30
0.0
  0
VERTEX
  5
33B
330
339
100
AcDbEntity
  8
Layer 1
 62
     7
370
    25
100
AcDbVertex
100
AcDb2dVertex
 10
144.353979456099
 20
529.9421575281048
 30
0.0
  0
SEQEND
  5
33C
330
339
100
AcDbEntity
  8
Layer 1
370
    25
  0
POLYLINE
  5
33D
330
3C
100
AcDbEntity
  8
Layer 1
 62
     7
370
    25
100
AcDb2dPolyline
 66
     1
 10
0.0
 20
0.0
 30
0.0
  0
VERTEX
  5
33E
330
33D
100
AcDbEntity
  8
Layer 1
 62
     7
370
    25
100
AcDbVertex
100
AcDb2dVertex
 10
144.353979456099
 20
529.9421575281048
 30
0.0
  0
VERTEX
  5
33F
330
33D
100
AcDbEntity
  8
Layer 1
 62
     7
370
    25
100
AcDbVertex
100
AcDb2dVertex
 10
139.0623127907553
 20
522.8869464838616
 30
0.0
  0
SEQEND
  5
340
330
33D
100
AcDbEntity
  8
Layer 1
370
    25
  0
POLYLINE
  5
341
330
3C
100
AcDbEntity
  8
Layer 1
 62
     7
370
    25
100
AcDb2dPolyline
 66
     1
 10
0.0
 20
0.0
 30
0.0
  0
VERTEX
  5
342
330
341
100
AcDbEntity
  8
Layer 1
 62
     7
370
    25
100
AcDbVertex
100
AcDb2dVertex
 10
139.0623127907553
 20
522.8869464838616
 30
0.0
  0
VERTEX
  5
343
330
341
100
AcDbEntity
  8
Layer 1
 62
     7
370
    25
100
AcDbVertex
100
AcDb2dVertex
 10
133.7704738706373
 20
522.8869464838616
 30
0.0
  0
SEQEND
  5
344
330
341
100
AcDbEntity
  8
Layer 1
370
    25
  0
POLYLINE
  5
345
330
3C
100
AcDbEntity
  8
Layer 1
370
     0
100
AcDb2dPolyline
 66
     1
 10
0.0
 20
0.0
 30
0.0
  0
VERTEX
  5
346
330
345
100
AcDbEntity
  8
Layer 1
370
     0
100
AcDbVertex
100
AcDb2dVertex
 10
-138.172961391238
 20
923.9005395910735
 30
0.0
  0
VERTEX
  5
347
330
345
100
AcDbEntity
  8
Layer 1
370
     0
100
AcDbVertex
100
AcDb2dVertex
 10
-133.1730943134949
 20
893.9009926150665
 30
0.0
  0
VERTEX
  5
348
330
345
100
AcDbEntity
  8
Layer 1
370
     0
100
AcDbVertex
100
AcDb2dVertex
 10
-143.1730007237554
 20
893.9009926150665
 30
0.0
  0
SEQEND
  5
349
330
345
100
AcDbEntity
  8
Layer 1
370
     0
  0
HATCH
  5
34A
330
3C
100
AcDbEntity
  8
Layer 1
 62
     7
100
AcDbHatch
 10
0.0
 20
0.0
 30
0.0
210
0.0
220
0.0
230
1.0
  2
SOLID
 70
     1
 71
     0
 91
        1
 92
        1
 93
        3
 72
     1
 10
-138.172961391238
 20
923.9005395910735
 11
-133.1730943134949
 21
893.9009926150665
 72
     1
 10
-133.1730943134949
 20
893.9009926150665
 11
-143.1730007237554
 21
893.9009926150665
 72
     1
 10
-143.1730007237554
 20
893.9009926150665
 11
-138.172961391238
 21
923.9005395910735
 97
        0
 75
     2
 76
     1
 98
        0
  0
POLYLINE
  5
34B
330
3C
100
AcDbEntity
  8
Layer 1
370
     0
100
AcDb2dPolyline
 66
     1
 10
0.0
 20
0.0
 30
0.0
  0
VERTEX
  5
34C
330
34B
100
AcDbEntity
  8
Layer 1
370
     0
100
AcDbVertex
100
AcDb2dVertex
 10
-138.172961391238
 20
1133.900641263834
 30
0.0
  0
VERTEX
  5
34D
330
34B
100
AcDbEntity
  8
Layer 1
370
     0
100
AcDbVertex
100
AcDb2dVertex
 10
-143.1730007237554
 20
1163.900705004164
 30
0.0
  0
VERTEX
  5
34E
330
34B
100
AcDbEntity
  8
Layer 1
370
     0
100
AcDbVertex
100
AcDb2dVertex
 10
-133.1730943134949
 20
1163.900705004164
 30
0.0
  0
SEQEND
  5
34F
330
34B
100
AcDbEntity
  8
Layer 1
370
     0
  0
HATCH
  5
350
330
3C
100
AcDbEntity
  8
Layer 1
 62
     7
100
AcDbHatch
 10
0.0
 20
0.0
 30
0.0
210
0.0
220
0.0
230
1.0
  2
SOLID
 70
     1
 71
     0
 91
        1
 92
        1
 93
        3
 72
     1
 10
-138.172961391238
 20
1133.900641263834
 11
-143.1730007237554
 21
1163.900705004164
 72
     1
 10
-143.1730007237554
 20
1163.900705004164
 11
-133.1730943134949
 21
1163.900705004164
 72
     1
 10
-133.1730943134949
 20
1163.900705004164
 11
-138.172961391238
 21
1133.900641263834
 97
        0
 75
     2
 76
     1
 98
        0
  0
POLYLINE
  5
351
330
3C
100
AcDbEntity
  8
Layer 1
 62
     7
370
    25
100
AcDb2dPolyline
 66
     1
 10
0.0
 20
0.0
 30
0.0
  0
VERTEX
  5
352
330
351
100
AcDbEntity
  8
Layer 1
 62
     7
370
    25
100
AcDbVertex
100
AcDb2dVertex
 10
-39.44909938249884
 20
923.9005395910735
 30
0.0
  0
VERTEX
  5
353
330
351
100
AcDbEntity
  8
Layer 1
 62
     7
370
    25
100
AcDbVertex
100
AcDb2dVertex
 10
-148.173212311047
 20
923.9005395910735
 30
0.0
  0
SEQEND
  5
354
330
351
100
AcDbEntity
  8
Layer 1
370
    25
  0
POLYLINE
  5
355
330
3C
100
AcDbEntity
  8
Layer 1
 62
     7
370
    25
100
AcDb2dPolyline
 66
     1
 10
0.0
 20
0.0
 30
0.0
  0
VERTEX
  5
356
330
355
100
AcDbEntity
  8
Layer 1
 62
     7
370
    25
100
AcDbVertex
100
AcDb2dVertex
 10
-41.13616264162568
 20
1133.900641263834
 30
0.0
  0
VERTEX
  5
357
330
355
100
AcDbEntity
  8
Layer 1
 62
     7
370
    25
100
AcDbVertex
100
AcDb2dVertex
 10
-148.173212311047
 20
1133.900641263834
 30
0.0
  0
SEQEND
  5
358
330
355
100
AcDbEntity
  8
Layer 1
370
    25
  0
POLYLINE
  5
359
330
3C
100
AcDbEntity
  8
Layer 1
 62
     7
370
    25
100
AcDb2dPolyline
 66
     1
 10
0.0
 20
0.0
 30
0.0
  0
VERTEX
  5
35A
330
359
100
AcDbEntity
  8
Layer 1
 62
     7
370
    25
100
AcDbVertex
100
AcDb2dVertex
 10
-138.172961391238
 20
923.9005395910735
 30
0.0
  0
VERTEX
  5
35B
330
359
100
AcDbEntity
  8
Layer 1
 62
     7
370
    25
100
AcDbVertex
100
AcDb2dVertex
 10
-138.172961391238
 20
863.9009288747366
 30
0.0
  0
SEQEND
  5
35C
330
359
100
AcDbEntity
  8
Layer 1
370
    25
  0
POLYLINE
  5
35D
330
3C
100
AcDbEntity
  8
Layer 1
 62
     7
370
    25
100
AcDb2dPolyline
 66
     1
 10
0.0
 20
0.0
 30
0.0
  0
VERTEX
  5
35E
330
35D
100
AcDbEntity
  8
Layer 1
 62
     7
370
    25
100
AcDbVertex
100
AcDb2dVertex
 10
-138.172961391238
 20
923.9005395910735
 30
0.0
  0
VERTEX
  5
35F
330
35D
100
AcDbEntity
  8
Layer 1
 62
     7
370
    25
100
AcDbVertex
100
AcDb2dVertex
 10
-138.172961391238
 20
1133.900641263834
 30
0.0
  0
SEQEND
  5
360
330
35D
100
AcDbEntity
  8
Layer 1
370
    25
  0
POLYLINE
  5
361
330
3C
100
AcDbEntity
  8
Layer 1
 62
     7
370
    25
100
AcDb2dPolyline
 66
     1
 10
0.0
 20
0.0
 30
0.0
  0
VERTEX
  5
362
330
361
100
AcDbEntity
  8
Layer 1
 62
     7
370
    25
100
AcDbVertex
100
AcDb2dVertex
 10
-138.172961391238
 20
1133.900641263834
 30
0.0
  0
VERTEX
  5
363
330
361
100
AcDbEntity
  8
Layer 1
 62
     7
370
    25
100
AcDbVertex
100
AcDb2dVertex
 10
-138.172961391238
 20
1193.900768744494
 30
0.0
  0
SEQEND
  5
364
330
361
100
AcDbEntity
  8
Layer 1
370
    25
  0
POLYLINE
  5
365
330
3C
100
AcDbEntity
  8
Layer 1
 62
     7
370
    25
100
AcDb2dPolyline
 66
     1
 10
0.0
 20
0.0
 30
0.0
  0
VERTEX
  5
366
330
365
100
AcDbEntity
  8
Layer 1
 62
     7
370
    25
100
AcDbVertex
100
AcDb2dVertex
 10
-185.6877183238038
 20
964.8125987713837
 30
0.0
  0
VERTEX
  5
367
330
365
100
AcDbEntity
  8
Layer 1
 62
     7
370
    25
100
AcDbVertex
100
AcDb2dVertex
 10
-192.7434461323697
 20
970.1044376915017
 30
0.0
  0
SEQEND
  5
368
330
365
100
AcDbEntity
  8
Layer 1
370
    25
  0
POLYLINE
  5
369
330
3C
100
AcDbEntity
  8
Layer 1
 62
     7
370
    25
100
AcDb2dPolyline
 66
     1
 10
0.0
 20
0.0
 30
0.0
  0
VERTEX
  5
36A
330
369
100
AcDbEntity
  8
Layer 1
 62
     7
370
    25
100
AcDbVertex
100
AcDb2dVertex
 10
-192.7434461323697
 20
970.1044376915017
 30
0.0
  0
VERTEX
  5
36B
330
369
100
AcDbEntity
  8
Layer 1
 62
     7
370
    25
100
AcDbVertex
100
AcDb2dVertex
 10
-192.7434461323697
 20
980.6877710221892
 30
0.0
  0
SEQEND
  5
36C
330
369
100
AcDbEntity
  8
Layer 1
370
    25
  0
POLYLINE
  5
36D
330
3C
100
AcDbEntity
  8
Layer 1
 62
     7
370
    25
100
AcDb2dPolyline
 66
     1
 10
0.0
 20
0.0
 30
0.0
  0
VERTEX
  5
36E
330
36D
100
AcDbEntity
  8
Layer 1
 62
     7
370
    25
100
AcDbVertex
100
AcDb2dVertex
 10
-192.7434461323697
 20
980.6877710221892
 30
0.0
  0
VERTEX
  5
36F
330
36D
100
AcDbEntity
  8
Layer 1
 62
     7
370
    25
100
AcDbVertex
100
AcDb2dVertex
 10
-185.6877183238038
 20
985.9796099423072
 30
0.0
  0
SEQEND
  5
370
330
36D
100
AcDbEntity
  8
Layer 1
370
    25
  0
POLYLINE
  5
371
330
3C
100
AcDbEntity
  8
Layer 1
 62
     7
370
    25
100
AcDb2dPolyline
 66
     1
 10
0.0
 20
0.0
 30
0.0
  0
VERTEX
  5
372
330
371
100
AcDbEntity
  8
Layer 1
 62
     7
370
    25
100
AcDbVertex
100
AcDb2dVertex
 10
-185.6877183238038
 20
985.9796099423072
 30
0.0
  0
VERTEX
  5
373
330
371
100
AcDbEntity
  8
Layer 1
 62
     7
370
    25
100
AcDbVertex
100
AcDb2dVertex
 10
-178.6323350247864
 20
985.9796099423072
 30
0.0
  0
SEQEND
  5
374
330
371
100
AcDbEntity
  8
Layer 1
370
    25
  0
POLYLINE
  5
375
330
3C
100
AcDbEntity
  8
Layer 1
 62
     7
370
    25
100
AcDb2dPolyline
 66
     1
 10
0.0
 20
0.0
 30
0.0
  0
VERTEX
  5
376
330
375
100
AcDbEntity
  8
Layer 1
 62
     7
370
    25
100
AcDbVertex
100
AcDb2dVertex
 10
-178.6323350247864
 20
985.9796099423072
 30
0.0
  0
VERTEX
  5
377
330
375
100
AcDbEntity
  8
Layer 1
 62
     7
370
    25
100
AcDbVertex
100
AcDb2dVertex
 10
-171.5766072162205
 20
980.6877710221892
 30
0.0
  0
SEQEND
  5
378
330
375
100
AcDbEntity
  8
Layer 1
370
    25
  0
POLYLINE
  5
379
330
3C
100
AcDbEntity
  8
Layer 1
 62
     7
370
    25
100
AcDb2dPolyline
 66
     1
 10
0.0
 20
0.0
 30
0.0
  0
VERTEX
  5
37A
330
379
100
AcDbEntity
  8
Layer 1
 62
     7
370
    25
100
AcDbVertex
100
AcDb2dVertex
 10
-171.5766072162205
 20
980.6877710221892
 30
0.0
  0
VERTEX
  5
37B
330
379
100
AcDbEntity
  8
Layer 1
 62
     7
370
    25
100
AcDbVertex
100
AcDb2dVertex
 10
-171.5766072162205
 20
970.1044376915017
 30
0.0
  0
SEQEND
  5
37C
330
379
100
AcDbEntity
  8
Layer 1
370
    25
  0
POLYLINE
  5
37D
330
3C
100
AcDbEntity
  8
Layer 1
 62
     7
370
    25
100
AcDb2dPolyline
 66
     1
 10
0.0
 20
0.0
 30
0.0
  0
VERTEX
  5
37E
330
37D
100
AcDbEntity
  8
Layer 1
 62
     7
370
    25
100
AcDbVertex
100
AcDb2dVertex
 10
-171.5766072162205
 20
970.1044376915017
 30
0.0
  0
VERTEX
  5
37F
330
37D
100
AcDbEntity
  8
Layer 1
 62
     7
370
    25
100
AcDbVertex
100
AcDb2dVertex
 10
-164.521223917203
 20
964.8125987713837
 30
0.0
  0
SEQEND
  5
380
330
37D
100
AcDbEntity
  8
Layer 1
370
    25
  0
POLYLINE
  5
381
330
3C
100
AcDbEntity
  8
Layer 1
 62
     7
370
    25
100
AcDb2dPolyline
 66
     1
 10
0.0
 20
0.0
 30
0.0
  0
VERTEX
  5
382
330
381
100
AcDbEntity
  8
Layer 1
 62
     7
370
    25
100
AcDbVertex
100
AcDb2dVertex
 10
-164.521223917203
 20
964.8125987713837
 30
0.0
  0
VERTEX
  5
383
330
381
100
AcDbEntity
  8
Layer 1
 62
     7
370
    25
100
AcDbVertex
100
AcDb2dVertex
 10
-150.4101128096197
 20
964.8125987713837
 30
0.0
  0
SEQEND
  5
384
330
381
100
AcDbEntity
  8
Layer 1
370
    25
  0
POLYLINE
  5
385
330
3C
100
AcDbEntity
  8
Layer 1
 62
     7
370
    25
100
AcDb2dPolyline
 66
     1
 10
0.0
 20
0.0
 30
0.0
  0
VERTEX
  5
386
330
385
100
AcDbEntity
  8
Layer 1
 62
     7
370
    25
100
AcDbVertex
100
AcDb2dVertex
 10
-150.4101128096197
 20
964.8125987713837
 30
0.0
  0
VERTEX
  5
387
330
385
100
AcDbEntity
  8
Layer 1
 62
     7
370
    25
100
AcDbVertex
100
AcDb2dVertex
 10
-150.4101128096197
 20
985.9796099423072
 30
0.0
  0
SEQEND
  5
388
330
385
100
AcDbEntity
  8
Layer 1
370
    25
  0
POLYLINE
  5
389
330
3C
100
AcDbEntity
  8
Layer 1
 62
     7
370
    25
100
AcDb2dPolyline
 66
     1
 10
0.0
 20
0.0
 30
0.0
  0
VERTEX
  5
38A
330
389
100
AcDbEntity
  8
Layer 1
 62
     7
370
    25
100
AcDbVertex
100
AcDb2dVertex
 10
-150.4101128096197
 20
996.5629432729947
 30
0.0
  0
VERTEX
  5
38B
330
389
100
AcDbEntity
  8
Layer 1
 62
     7
370
    25
100
AcDbVertex
100
AcDb2dVertex
 10
-150.4101128096197
 20
1007.146104348908
 30
0.0
  0
SEQEND
  5
38C
330
389
100
AcDbEntity
  8
Layer 1
370
    25
  0
POLYLINE
  5
38D
330
3C
100
AcDbEntity
  8
Layer 1
 62
     7
370
    25
100
AcDb2dPolyline
 66
     1
 10
0.0
 20
0.0
 30
0.0
  0
VERTEX
  5
38E
330
38D
100
AcDbEntity
  8
Layer 1
 62
     7
370
    25
100
AcDbVertex
100
AcDb2dVertex
 10
-150.4101128096197
 20
1001.85426542879
 30
0.0
  0
VERTEX
  5
38F
330
38D
100
AcDbEntity
  8
Layer 1
 62
     7
370
    25
100
AcDbVertex
100
AcDb2dVertex
 10
-192.7434461323697
 20
1001.85426542879
 30
0.0
  0
SEQEND
  5
390
330
38D
100
AcDbEntity
  8
Layer 1
370
    25
  0
POLYLINE
  5
391
330
3C
100
AcDbEntity
  8
Layer 1
 62
     7
370
    25
100
AcDb2dPolyline
 66
     1
 10
0.0
 20
0.0
 30
0.0
  0
VERTEX
  5
392
330
391
100
AcDbEntity
  8
Layer 1
 62
     7
370
    25
100
AcDbVertex
100
AcDb2dVertex
 10
-192.7434461323697
 20
1001.85426542879
 30
0.0
  0
VERTEX
  5
393
330
391
100
AcDbEntity
  8
Layer 1
 62
     7
370
    25
100
AcDbVertex
100
AcDb2dVertex
 10
-185.6877183238038
 20
996.5629432729947
 30
0.0
  0
SEQEND
  5
394
330
391
100
AcDbEntity
  8
Layer 1
370
    25
  0
POLYLINE
  5
395
330
3C
100
AcDbEntity
  8
Layer 1
 62
     7
370
    25
100
AcDb2dPolyline
 66
     1
 10
0.0
 20
0.0
 30
0.0
  0
VERTEX
  5
396
330
395
100
AcDbEntity
  8
Layer 1
 62
     7
370
    25
100
AcDbVertex
100
AcDb2dVertex
 10
-150.4101128096197
 20
1023.021276599713
 30
0.0
  0
VERTEX
  5
397
330
395
100
AcDbEntity
  8
Layer 1
 62
     7
370
    25
100
AcDbVertex
100
AcDb2dVertex
 10
-157.4654961086371
 20
1017.729437679595
 30
0.0
  0
SEQEND
  5
398
330
395
100
AcDbEntity
  8
Layer 1
370
    25
  0
POLYLINE
  5
399
330
3C
100
AcDbEntity
  8
Layer 1
 62
     7
370
    25
100
AcDb2dPolyline
 66
     1
 10
0.0
 20
0.0
 30
0.0
  0
VERTEX
  5
39A
330
399
100
AcDbEntity
  8
Layer 1
 62
     7
370
    25
100
AcDbVertex
100
AcDb2dVertex
 10
-157.4654961086371
 20
1017.729437679595
 30
0.0
  0
VERTEX
  5
39B
330
399
100
AcDbEntity
  8
Layer 1
 62
     7
370
    25
100
AcDbVertex
100
AcDb2dVertex
 10
-185.6877183238038
 20
1017.729437679595
 30
0.0
  0
SEQEND
  5
39C
330
399
100
AcDbEntity
  8
Layer 1
370
    25
  0
POLYLINE
  5
39D
330
3C
100
AcDbEntity
  8
Layer 1
 62
     7
370
    25
100
AcDb2dPolyline
 66
     1
 10
0.0
 20
0.0
 30
0.0
  0
VERTEX
  5
39E
330
39D
100
AcDbEntity
  8
Layer 1
 62
     7
370
    25
100
AcDbVertex
100
AcDb2dVertex
 10
-185.6877183238038
 20
1017.729437679595
 30
0.0
  0
VERTEX
  5
39F
330
39D
100
AcDbEntity
  8
Layer 1
 62
     7
370
    25
100
AcDbVertex
100
AcDb2dVertex
 10
-192.7434461323697
 20
1023.021276599713
 30
0.0
  0
SEQEND
  5
3A0
330
39D
100
AcDbEntity
  8
Layer 1
370
    25
  0
POLYLINE
  5
3A1
330
3C
100
AcDbEntity
  8
Layer 1
 62
     7
370
    25
100
AcDb2dPolyline
 66
     1
 10
0.0
 20
0.0
 30
0.0
  0
VERTEX
  5
3A2
330
3A1
100
AcDbEntity
  8
Layer 1
 62
     7
370
    25
100
AcDbVertex
100
AcDb2dVertex
 10
-192.7434461323697
 20
1023.021276599713
 30
0.0
  0
VERTEX
  5
3A3
330
3A1
100
AcDbEntity
  8
Layer 1
 62
     7
370
    25
100
AcDbVertex
100
AcDb2dVertex
 10
-192.7434461323697
 20
1028.312426500735
 30
0.0
  0
SEQEND
  5
3A4
330
3A1
100
AcDbEntity
  8
Layer 1
370
    25
  0
POLYLINE
  5
3A5
330
3C
100
AcDbEntity
  8
Layer 1
 62
     7
370
    25
100
AcDb2dPolyline
 66
     1
 10
0.0
 20
0.0
 30
0.0
  0
VERTEX
  5
3A6
330
3A5
100
AcDbEntity
  8
Layer 1
 62
     7
370
    25
100
AcDbVertex
100
AcDb2dVertex
 10
-192.7434461323697
 20
1028.312426500735
 30
0.0
  0
VERTEX
  5
3A7
330
3A5
100
AcDbEntity
  8
Layer 1
 62
     7
370
    25
100
AcDbVertex
100
AcDb2dVertex
 10
-185.6877183238038
 20
1033.604265420852
 30
0.0
  0
SEQEND
  5
3A8
330
3A5
100
AcDbEntity
  8
Layer 1
370
    25
  0
POLYLINE
  5
3A9
330
3C
100
AcDbEntity
  8
Layer 1
 62
     7
370
    25
100
AcDb2dPolyline
 66
     1
 10
0.0
 20
0.0
 30
0.0
  0
VERTEX
  5
3AA
330
3A9
100
AcDbEntity
  8
Layer 1
 62
     7
370
    25
100
AcDbVertex
100
AcDb2dVertex
 10
-185.6877183238038
 20
1033.604265420852
 30
0.0
  0
VERTEX
  5
3AB
330
3A9
100
AcDbEntity
  8
Layer 1
 62
     7
370
    25
100
AcDbVertex
100
AcDb2dVertex
 10
-157.4654961086371
 20
1033.604265420852
 30
0.0
  0
SEQEND
  5
3AC
330
3A9
100
AcDbEntity
  8
Layer 1
370
    25
  0
POLYLINE
  5
3AD
330
3C
100
AcDbEntity
  8
Layer 1
 62
     7
370
    25
100
AcDb2dPolyline
 66
     1
 10
0.0
 20
0.0
 30
0.0
  0
VERTEX
  5
3AE
330
3AD
100
AcDbEntity
  8
Layer 1
 62
     7
370
    25
100
AcDbVertex
100
AcDb2dVertex
 10
-157.4654961086371
 20
1033.604265420852
 30
0.0
  0
VERTEX
  5
3AF
330
3AD
100
AcDbEntity
  8
Layer 1
 62
     7
370
    25
100
AcDbVertex
100
AcDb2dVertex
 10
-150.4101128096197
 20
1028.312426500735
 30
0.0
  0
SEQEND
  5
3B0
330
3AD
100
AcDbEntity
  8
Layer 1
370
    25
  0
POLYLINE
  5
3B1
330
3C
100
AcDbEntity
  8
Layer 1
 62
     7
370
    25
100
AcDb2dPolyline
 66
     1
 10
0.0
 20
0.0
 30
0.0
  0
VERTEX
  5
3B2
330
3B1
100
AcDbEntity
  8
Layer 1
 62
     7
370
    25
100
AcDbVertex
100
AcDb2dVertex
 10
-150.4101128096197
 20
1028.312426500735
 30
0.0
  0
VERTEX
  5
3B3
330
3B1
100
AcDbEntity
  8
Layer 1
 62
     7
370
    25
100
AcDbVertex
100
AcDb2dVertex
 10
-150.4101128096197
 20
1023.021276599713
 30
0.0
  0
SEQEND
  5
3B4
330
3B1
100
AcDbEntity
  8
Layer 1
370
    25
  0
SPLINE
  5
3B5
330
3C
100
AcDbEntity
  8
Layer 1
 62
     7
370
    15
100
AcDbSpline
210
0.0
220
0.0
230
1.0
 70
     8
 71
     3
 72
     8
 73
     4
 74
     0
 42
0.0000000001
 43
0.0000000001
 40
0.0
 40
0.0
 40
0.0
 40
0.0
 40
1.0
 40
1.0
 40
1.0
 40
1.0
 10
48.77359482287605
 20
184.6212890163447
 30
0.0
 10
72.33632539424231
 20
183.2756347198061
 30
0.0
 10
95.89957272993136
 20
181.9286023850734
 30
0.0
 10
119.4311251871561
 20
180.5843261267289
 30
0.0
  0
SPLINE
  5
3B6
330
3C
100
AcDbEntity
  8
Layer 1
 62
     7
370
    15
100
AcDbSpline
210
0.0
220
0.0
230
1.0
 70
     8
 71
     3
 72
     8
 73
     4
 74
     0
 42
0.0000000001
 43
0.0000000001
 40
0.0
 40
0.0
 40
0.0
 40
0.0
 40
1.0
 40
1.0
 40
1.0
 40
1.0
 10
119.4311251871561
 20
180.5843261267289
 30
0.0
 10
146.2382744317564
 20
179.0526366739869
 30
0.0
 10
173.0051160591793
 20
177.5230142785359
 30
0.0
 10
199.7714409222794
 20
175.993391883085
 30
0.0
  0
SPLINE
  5
3B7
330
3C
100
AcDbEntity
  8
Layer 1
 62
     7
370
    15
100
AcDbSpline
210
0.0
220
0.0
230
1.0
 70
     8
 71
     3
 72
     8
 73
     4
 74
     0
 42
0.0000000001
 43
0.0000000001
 40
0.0
 40
0.0
 40
0.0
 40
0.0
 40
1.0
 40
1.0
 40
1.0
 40
1.0
 10
320.722025473205
 20
175.993391883085
 30
0.0
 10
347.4635456488112
 20
177.5216362403418
 30
0.0
 10
374.2050658244175
 20
179.0485025594045
 30
0.0
 10
401.0761215902692
 20
180.5843261267289
 30
0.0
  0
SPLINE
  5
3B8
330
3C
100
AcDbEntity
  8
Layer 1
 62
     7
370
    15
100
AcDbSpline
210
0.0
220
0.0
230
1.0
 70
     8
 71
     3
 72
     8
 73
     4
 74
     0
 42
0.0000000001
 43
0.0000000001
 40
0.0
 40
0.0
 40
0.0
 40
0.0
 40
1.0
 40
1.0
 40
1.0
 40
1.0
 10
401.0761215902692
 20
180.5843261267289
 30
0.0
 10
424.5628878061857
 20
181.9265353277823
 30
0.0
 10
448.1493895364002
 20
183.274256681612
 30
0.0
 10
471.7352022475176
 20
184.6212890163447
 30
0.0
  0
SPLINE
  5
3B9
330
3C
100
AcDbEntity
  8
Layer 1
 62
     7
370
    15
100
AcDbSpline
210
0.0
220
0.0
230
1.0
 70
     8
 71
     3
 72
     8
 73
     4
 74
     0
 42
0.0000000001
 43
0.0000000001
 40
0.0
 40
0.0
 40
0.0
 40
0.0
 40
1.0
 40
1.0
 40
1.0
 40
1.0
 10
24.05520697098273
 20
210.7798990358467
 30
0.0
 10
24.0548624614342
 20
196.8865179629312
 30
0.0
 10
34.90122883242053
 20
185.4074598060787
 30
0.0
 10
48.77307805855326
 20
184.6212890163447
 30
0.0
  0
SPLINE
  5
3BA
330
3C
100
AcDbEntity
  8
Layer 1
 62
     7
370
    15
100
AcDbSpline
210
0.0
220
0.0
230
1.0
 70
     8
 71
     3
 72
     8
 73
     4
 74
     0
 42
0.0000000001
 43
0.0000000001
 40
0.0
 40
0.0
 40
0.0
 40
0.0
 40
1.0
 40
1.0
 40
1.0
 40
1.0
 10
471.7345132284206
 20
184.6212890163447
 30
0.0
 10
485.6072237284246
 20
185.4067707869816
 30
0.0
 10
496.4544513732823
 20
196.8858289438341
 30
0.0
 10
496.4544513732823
 20
210.7798990358467
 30
0.0
  0
POLYLINE
  5
3BB
330
3C
100
AcDbEntity
  8
Layer 1
 62
     7
370
    15
100
AcDb2dPolyline
 66
     1
 10
0.0
 20
0.0
 30
0.0
  0
VERTEX
  5
3BC
330
3BB
100
AcDbEntity
  8
Layer 1
 62
     7
370
    15
100
AcDbVertex
100
AcDb2dVertex
 10
199.7487032920767
 20
175.9775444438528
 30
0.0
  0
VERTEX
  5
3BD
330
3BB
100
AcDbEntity
  8
Layer 1
 62
     7
370
    15
100
AcDbVertex
100
AcDb2dVertex
 10
202.6777234736361
 20
173.0471462240993
 30
0.0
  0
SEQEND
  5
3BE
330
3BB
100
AcDbEntity
  8
Layer 1
370
    15
  0
POLYLINE
  5
3BF
330
3C
100
AcDbEntity
  8
Layer 1
 62
     7
370
    15
100
AcDb2dPolyline
 66
     1
 10
0.0
 20
0.0
 30
0.0
  0
VERTEX
  5
3C0
330
3BF
100
AcDbEntity
  8
Layer 1
 62
     7
370
    15
100
AcDbVertex
100
AcDb2dVertex
 10
317.8319348706289
 20
173.0471462240993
 30
0.0
  0
VERTEX
  5
3C1
330
3BF
100
AcDbEntity
  8
Layer 1
 62
     7
370
    15
100
AcDbVertex
100
AcDb2dVertex
 10
320.7544093707663
 20
175.9706542528824
 30
0.0
  0
SEQEND
  5
3C2
330
3BF
100
AcDbEntity
  8
Layer 1
370
    15
  0
POLYLINE
  5
3C3
330
3C
100
AcDbEntity
  8
Layer 1
 62
     7
370
    15
100
AcDb2dPolyline
 66
     1
 10
0.0
 20
0.0
 30
0.0
  0
VERTEX
  5
3C4
330
3C3
100
AcDbEntity
  8
Layer 1
 62
     7
370
    15
100
AcDbVertex
100
AcDb2dVertex
 10
202.6777234736361
 20
173.0471462240993
 30
0.0
  0
VERTEX
  5
3C5
330
3C3
100
AcDbEntity
  8
Layer 1
 62
     7
370
    15
100
AcDbVertex
100
AcDb2dVertex
 10
215.1067667105462
 20
170.9676865892025
 30
0.0
  0
SEQEND
  5
3C6
330
3C3
100
AcDbEntity
  8
Layer 1
370
    15
  0
POLYLINE
  5
3C7
330
3C
100
AcDbEntity
  8
Layer 1
 62
     7
370
    15
100
AcDb2dPolyline
 66
     1
 10
0.0
 20
0.0
 30
0.0
  0
VERTEX
  5
3C8
330
3C7
100
AcDbEntity
  8
Layer 1
 62
     7
370
    15
100
AcDbVertex
100
AcDb2dVertex
 10
305.4027193789445
 20
170.9676865892025
 30
0.0
  0
VERTEX
  5
3C9
330
3C7
100
AcDbEntity
  8
Layer 1
 62
     7
370
    15
100
AcDbVertex
100
AcDb2dVertex
 10
317.8319348706289
 20
173.0471462240993
 30
0.0
  0
SEQEND
  5
3CA
330
3C7
100
AcDbEntity
  8
Layer 1
370
    15
  0
POLYLINE
  5
3CB
330
3C
100
AcDbEntity
  8
Layer 1
 62
     7
370
    15
100
AcDb2dPolyline
 66
     1
 10
0.0
 20
0.0
 30
0.0
  0
VERTEX
  5
3CC
330
3CB
100
AcDbEntity
  8
Layer 1
 62
     7
370
    15
100
AcDbVertex
100
AcDb2dVertex
 10
0.254937065908488
 20
380.9676160071887
 30
0.0
  0
VERTEX
  5
3CD
330
3CB
100
AcDbEntity
  8
Layer 1
 62
     7
370
    15
100
AcDbVertex
100
AcDb2dVertex
 10
0.254937065908488
 20
382.1671982551526
 30
0.0
  0
SEQEND
  5
3CE
330
3CB
100
AcDbEntity
  8
Layer 1
370
    15
  0
POLYLINE
  5
3CF
330
3C
100
AcDbEntity
  8
Layer 1
 62
     7
370
    15
100
AcDb2dPolyline
 66
     1
 10
0.0
 20
0.0
 30
0.0
  0
VERTEX
  5
3D0
330
3CF
100
AcDbEntity
  8
Layer 1
 62
     7
370
    15
100
AcDbVertex
100
AcDb2dVertex
 10
25.25496147372098
 20
382.1671982551526
 30
0.0
  0
VERTEX
  5
3D1
330
3CF
100
AcDbEntity
  8
Layer 1
 62
     7
370
    15
100
AcDbVertex
100
AcDb2dVertex
 10
0.254937065908488
 20
382.1671982551526
 30
0.0
  0
SEQEND
  5
3D2
330
3CF
100
AcDbEntity
  8
Layer 1
370
    15
  0
POLYLINE
  5
3D3
330
3C
100
AcDbEntity
  8
Layer 1
 62
     7
370
    15
100
AcDb2dPolyline
 66
     1
 10
0.0
 20
0.0
 30
0.0
  0
VERTEX
  5
3D4
330
3D3
100
AcDbEntity
  8
Layer 1
 62
     7
370
    15
100
AcDbVertex
100
AcDb2dVertex
 10
25.25496147372098
 20
380.9676160071887
 30
0.0
  0
VERTEX
  5
3D5
330
3D3
100
AcDbEntity
  8
Layer 1
 62
     7
370
    15
100
AcDbVertex
100
AcDb2dVertex
 10
25.25496147372098
 20
382.1671982551526
 30
0.0
  0
SEQEND
  5
3D6
330
3D3
100
AcDbEntity
  8
Layer 1
370
    15
  0
POLYLINE
  5
3D7
330
3C
100
AcDbEntity
  8
Layer 1
 62
     7
370
    15
100
AcDb2dPolyline
 66
     1
 10
0.0
 20
0.0
 30
0.0
  0
VERTEX
  5
3D8
330
3D7
100
AcDbEntity
  8
Layer 1
 62
     7
370
    15
100
AcDbVertex
100
AcDb2dVertex
 10
25.25496147372098
 20
380.9676160071887
 30
0.0
  0
VERTEX
  5
3D9
330
3D7
100
AcDbEntity
  8
Layer 1
 62
     7
370
    15
100
AcDbVertex
100
AcDb2dVertex
 10
0.254937065908488
 20
380.9676160071887
 30
0.0
  0
SEQEND
  5
3DA
330
3D7
100
AcDbEntity
  8
Layer 1
370
    15
  0
POLYLINE
  5
3DB
330
3C
100
AcDbEntity
  8
Layer 1
 62
     7
370
    15
100
AcDb2dPolyline
 66
     1
 10
0.0
 20
0.0
 30
0.0
  0
VERTEX
  5
3DC
330
3DB
100
AcDbEntity
  8
Layer 1
 62
     7
370
    15
100
AcDbVertex
100
AcDb2dVertex
 10
495.2548691253182
 20
382.1671982551526
 30
0.0
  0
VERTEX
  5
3DD
330
3DB
100
AcDbEntity
  8
Layer 1
 62
     7
370
    15
100
AcDbVertex
100
AcDb2dVertex
 10
25.25496147372098
 20
382.1671982551526
 30
0.0
  0
SEQEND
  5
3DE
330
3DB
100
AcDbEntity
  8
Layer 1
370
    15
  0
POLYLINE
  5
3DF
330
3C
100
AcDbEntity
  8
Layer 1
 62
     7
370
    15
100
AcDb2dPolyline
 66
     1
 10
0.0
 20
0.0
 30
0.0
  0
VERTEX
  5
3E0
330
3DF
100
AcDbEntity
  8
Layer 1
 62
     7
370
    15
100
AcDbVertex
100
AcDb2dVertex
 10
495.2548691253182
 20
380.9676160071887
 30
0.0
  0
VERTEX
  5
3E1
330
3DF
100
AcDbEntity
  8
Layer 1
 62
     7
370
    15
100
AcDbVertex
100
AcDb2dVertex
 10
495.2548691253182
 20
382.1671982551526
 30
0.0
  0
SEQEND
  5
3E2
330
3DF
100
AcDbEntity
  8
Layer 1
370
    15
  0
POLYLINE
  5
3E3
330
3C
100
AcDbEntity
  8
Layer 1
 62
     7
370
    15
100
AcDb2dPolyline
 66
     1
 10
0.0
 20
0.0
 30
0.0
  0
VERTEX
  5
3E4
330
3E3
100
AcDbEntity
  8
Layer 1
 62
     7
370
    15
100
AcDbVertex
100
AcDb2dVertex
 10
495.2548691253182
 20
380.9676160071887
 30
0.0
  0
VERTEX
  5
3E5
330
3E3
100
AcDbEntity
  8
Layer 1
 62
     7
370
    15
100
AcDbVertex
100
AcDb2dVertex
 10
25.25496147372098
 20
380.9676160071887
 30
0.0
  0
SEQEND
  5
3E6
330
3E3
100
AcDbEntity
  8
Layer 1
370
    15
  0
POLYLINE
  5
3E7
330
3C
100
AcDbEntity
  8
Layer 1
 62
     7
370
    15
100
AcDb2dPolyline
 66
     1
 10
0.0
 20
0.0
 30
0.0
  0
VERTEX
  5
3E8
330
3E7
100
AcDbEntity
  8
Layer 1
 62
     7
370
    15
100
AcDbVertex
100
AcDb2dVertex
 10
520.2545490235822
 20
380.9676160071887
 30
0.0
  0
VERTEX
  5
3E9
330
3E7
100
AcDbEntity
  8
Layer 1
 62
     7
370
    15
100
AcDbVertex
100
AcDb2dVertex
 10
520.2545490235822
 20
382.1671982551526
 30
0.0
  0
SEQEND
  5
3EA
330
3E7
100
AcDbEntity
  8
Layer 1
370
    15
  0
POLYLINE
  5
3EB
330
3C
100
AcDbEntity
  8
Layer 1
 62
     7
370
    15
100
AcDb2dPolyline
 66
     1
 10
0.0
 20
0.0
 30
0.0
  0
VERTEX
  5
3EC
330
3EB
100
AcDbEntity
  8
Layer 1
 62
     7
370
    15
100
AcDbVertex
100
AcDb2dVertex
 10
495.2548691253182
 20
380.9676160071887
 30
0.0
  0
VERTEX
  5
3ED
330
3EB
100
AcDbEntity
  8
Layer 1
 62
     7
370
    15
100
AcDbVertex
100
AcDb2dVertex
 10
520.2545490235822
 20
380.9676160071887
 30
0.0
  0
SEQEND
  5
3EE
330
3EB
100
AcDbEntity
  8
Layer 1
370
    15
  0
POLYLINE
  5
3EF
330
3C
100
AcDbEntity
  8
Layer 1
 62
     7
370
    15
100
AcDb2dPolyline
 66
     1
 10
0.0
 20
0.0
 30
0.0
  0
VERTEX
  5
3F0
330
3EF
100
AcDbEntity
  8
Layer 1
 62
     7
370
    15
100
AcDbVertex
100
AcDb2dVertex
 10
495.2548691253182
 20
382.1671982551526
 30
0.0
  0
VERTEX
  5
3F1
330
3EF
100
AcDbEntity
  8
Layer 1
 62
     7
370
    15
100
AcDbVertex
100
AcDb2dVertex
 10
520.2545490235822
 20
382.1671982551526
 30
0.0
  0
SEQEND
  5
3F2
330
3EF
100
AcDbEntity
  8
Layer 1
370
    15
  0
POLYLINE
  5
3F3
330
3C
100
AcDbEntity
  8
Layer 1
 62
     7
370
    15
100
AcDb2dPolyline
 66
     1
 10
0.0
 20
0.0
 30
0.0
  0
VERTEX
  5
3F4
330
3F3
100
AcDbEntity
  8
Layer 1
 62
     7
370
    15
100
AcDbVertex
100
AcDb2dVertex
 10
24.05520697098273
 20
211.3269801989044
 30
0.0
  0
VERTEX
  5
3F5
330
3F3
100
AcDbEntity
  8
Layer 1
 62
     7
370
    15
100
AcDbVertex
100
AcDb2dVertex
 10
24.05520697098273
 20
380.9676160071887
 30
0.0
  0
SEQEND
  5
3F6
330
3F3
100
AcDbEntity
  8
Layer 1
370
    15
  0
POLYLINE
  5
3F7
330
3C
100
AcDbEntity
  8
Layer 1
 62
     7
370
    15
100
AcDb2dPolyline
 66
     1
 10
0.0
 20
0.0
 30
0.0
  0
VERTEX
  5
3F8
330
3F7
100
AcDbEntity
  8
Layer 1
 62
     7
370
    15
100
AcDbVertex
100
AcDb2dVertex
 10
496.4544513732823
 20
211.3269801989044
 30
0.0
  0
VERTEX
  5
3F9
330
3F7
100
AcDbEntity
  8
Layer 1
 62
     7
370
    15
100
AcDbVertex
100
AcDb2dVertex
 10
496.4544513732823
 20
380.9676160071887
 30
0.0
  0
SEQEND
  5
3FA
330
3F7
100
AcDbEntity
  8
Layer 1
370
    15
  0
SPLINE
  5
3FB
330
3C
100
AcDbEntity
  8
Layer 1
 62
     7
370
    15
100
AcDbSpline
210
0.0
220
0.0
230
1.0
 70
     8
 71
     3
 72
     8
 73
     4
 74
     0
 42
0.0000000001
 43
0.0000000001
 40
0.0
 40
0.0
 40
0.0
 40
0.0
 40
1.0
 40
1.0
 40
1.0
 40
1.0
 10
199.7714409222794
 20
175.9954589403762
 30
0.0
 10
199.7810871896381
 20
175.9954589403762
 30
0.0
 10
199.790216692674
 20
175.9954589403762
 30
0.0
 10
199.8546399782481
 20
175.9947699212791
 30
0.0
  0
SPLINE
  5
3FC
330
3C
100
AcDbEntity
  8
Layer 1
 62
     7
370
    15
100
AcDbSpline
210
0.0
220
0.0
230
1.0
 70
     8
 71
     3
 72
     8
 73
     4
 74
     0
 42
0.0000000001
 43
0.0000000001
 40
0.0
 40
0.0
 40
0.0
 40
0.0
 40
1.0
 40
1.0
 40
1.0
 40
1.0
 10
199.8546399782481
 20
175.9947699212791
 30
0.0
 10
199.9449014799617
 20
175.9947699212791
 30
0.0
 10
200.1433389799121
 20
175.994080902182
 30
0.0
 10
200.4049939820168
 20
175.994080902182
 30
0.0
  0
SPLINE
  5
3FD
330
3C
100
AcDbEntity
  8
Layer 1
 62
     7
370
    15
100
AcDbSpline
210
0.0
220
0.0
230
1.0
 70
     8
 71
     3
 72
     8
 73
     4
 74
     0
 42
0.0000000001
 43
0.0000000001
 40
0.0
 40
0.0
 40
0.0
 40
0.0
 40
1.0
 40
1.0
 40
1.0
 40
1.0
 10
200.4049939820168
 20
175.994080902182
 30
0.0
 10
200.6678547675414
 20
175.993391883085
 30
0.0
 10
200.9956556029629
 20
175.993391883085
 30
0.0
 10
201.3975259913173
 20
175.9920138448909
 30
0.0
  0
SPLINE
  5
3FE
330
3C
100
AcDbEntity
  8
Layer 1
 62
     7
370
    15
100
AcDbSpline
210
0.0
220
0.0
230
1.0
 70
     8
 71
     3
 72
     8
 73
     4
 74
     0
 42
0.0000000001
 43
0.0000000001
 40
0.0
 40
0.0
 40
0.0
 40
0.0
 40
1.0
 40
1.0
 40
1.0
 40
1.0
 10
201.3975259913173
 20
175.9920138448909
 30
0.0
 10
201.7859605072792
 20
175.9920138448909
 30
0.0
 10
202.2434691877204
 20
175.9913248257938
 30
0.0
 10
202.7667791919298
 20
175.9906358066968
 30
0.0
  0
SPLINE
  5
3FF
330
3C
100
AcDbEntity
  8
Layer 1
 62
     7
370
    15
100
AcDbSpline
210
0.0
220
0.0
230
1.0
 70
     8
 71
     3
 72
     8
 73
     4
 74
     0
 42
0.0000000001
 43
0.0000000001
 40
0.0
 40
0.0
 40
0.0
 40
0.0
 40
1.0
 40
1.0
 40
1.0
 40
1.0
 10
202.7667791919298
 20
175.9906358066968
 30
0.0
 10
203.2933620368503
 20
175.9906358066968
 30
0.0
 10
203.885746205539
 20
175.9899467875997
 30
0.0
 10
204.5428981693504
 20
175.9899467875997
 30
0.0
  0
SPLINE
  5
400
330
3C
100
AcDbEntity
  8
Layer 1
 62
     7
370
    15
100
AcDbSpline
210
0.0
220
0.0
230
1.0
 70
     8
 71
     3
 72
     8
 73
     4
 74
     0
 42
0.0000000001
 43
0.0000000001
 40
0.0
 40
0.0
 40
0.0
 40
0.0
 40
1.0
 40
1.0
 40
1.0
 40
1.0
 10
204.5428981693504
 20
175.9899467875997
 30
0.0
 10
205.2146917889741
 20
175.9892577685027
 30
0.0
 10
205.9538370253345
 20
175.9878797303086
 30
0.0
 10
206.7577500568175
 20
175.9878797303086
 30
0.0
  0
SPLINE
  5
401
330
3C
100
AcDbEntity
  8
Layer 1
 62
     7
370
    15
100
AcDbSpline
210
0.0
220
0.0
230
1.0
 70
     8
 71
     3
 72
     8
 73
     4
 74
     0
 42
0.0000000001
 43
0.0000000001
 40
0.0
 40
0.0
 40
0.0
 40
0.0
 40
1.0
 40
1.0
 40
1.0
 40
1.0
 10
206.7577500568175
 20
175.9878797303086
 30
0.0
 10
207.5676920053997
 20
175.9871907112116
 30
0.0
 10
208.443263022976
 20
175.9871907112116
 30
0.0
 10
209.3811902688353
 20
175.9865016921145
 30
0.0
  0
SPLINE
  5
402
330
3C
100
AcDbEntity
  8
Layer 1
 62
     7
370
    15
100
AcDbSpline
210
0.0
220
0.0
230
1.0
 70
     8
 71
     3
 72
     8
 73
     4
 74
     0
 42
0.0000000001
 43
0.0000000001
 40
0.0
 40
0.0
 40
0.0
 40
0.0
 40
1.0
 40
1.0
 40
1.0
 40
1.0
 10
209.3811902688353
 20
175.9865016921145
 30
0.0
 10
210.2867336171332
 20
175.9865016921145
 30
0.0
 10
211.2504990791318
 20
175.9858126730174
 30
0.0
 10
212.2692138141202
 20
175.9858126730174
 30
0.0
  0
SPLINE
  5
403
330
3C
100
AcDbEntity
  8
Layer 1
 62
     7
370
    15
100
AcDbSpline
210
0.0
220
0.0
230
1.0
 70
     8
 71
     3
 72
     8
 73
     4
 74
     0
 42
0.0000000001
 43
0.0000000001
 40
0.0
 40
0.0
 40
0.0
 40
0.0
 40
1.0
 40
1.0
 40
1.0
 40
1.0
 10
212.2692138141202
 20
175.9858126730174
 30
0.0
 10
213.2943019757563
 20
175.9851236539204
 30
0.0
 10
214.3760619581248
 20
175.9851236539204
 30
0.0
 10
215.5091538632234
 20
175.9851236539204
 30
0.0
  0
SPLINE
  5
404
330
3C
100
AcDbEntity
  8
Layer 1
 62
     7
370
    15
100
AcDbSpline
210
0.0
220
0.0
230
1.0
 70
     8
 71
     3
 72
     8
 73
     4
 74
     0
 42
0.0000000001
 43
0.0000000001
 40
0.0
 40
0.0
 40
0.0
 40
0.0
 40
1.0
 40
1.0
 40
1.0
 40
1.0
 10
215.5091538632234
 20
175.9851236539204
 30
0.0
 10
216.633633029609
 20
175.9851236539204
 30
0.0
 10
217.8101331378218
 20
175.9858126730174
 30
0.0
 10
219.0338310541825
 20
175.9858126730174
 30
0.0
  0
SPLINE
  5
405
330
3C
100
AcDbEntity
  8
Layer 1
 62
     7
370
    15
100
AcDbSpline
210
0.0
220
0.0
230
1.0
 70
     8
 71
     3
 72
     8
 73
     4
 74
     0
 42
0.0000000001
 43
0.0000000001
 40
0.0
 40
0.0
 40
0.0
 40
0.0
 40
1.0
 40
1.0
 40
1.0
 40
1.0
 10
219.0338310541825
 20
175.9858126730174
 30
0.0
 10
220.2657971997079
 20
175.9865016921145
 30
0.0
 10
221.5453056629296
 20
175.9865016921145
 30
0.0
 10
222.8689113483626
 20
175.9865016921145
 30
0.0
  0
SPLINE
  5
406
330
3C
100
AcDbEntity
  8
Layer 1
 62
     7
370
    15
100
AcDbSpline
210
0.0
220
0.0
230
1.0
 70
     8
 71
     3
 72
     8
 73
     4
 74
     0
 42
0.0000000001
 43
0.0000000001
 40
0.0
 40
0.0
 40
0.0
 40
0.0
 40
1.0
 40
1.0
 40
1.0
 40
1.0
 10
222.8689113483626
 20
175.9865016921145
 30
0.0
 10
224.1825262568884
 20
175.9865016921145
 30
0.0
 10
225.5392048589798
 20
175.9871907112116
 30
0.0
 10
226.934468530506
 20
175.9871907112116
 30
0.0
  0
SPLINE
  5
407
330
3C
100
AcDbEntity
  8
Layer 1
 62
     7
370
    15
100
AcDbSpline
210
0.0
220
0.0
230
1.0
 70
     8
 71
     3
 72
     8
 73
     4
 74
     0
 42
0.0000000001
 43
0.0000000001
 40
0.0
 40
0.0
 40
0.0
 40
0.0
 40
1.0
 40
1.0
 40
1.0
 40
1.0
 10
226.934468530506
 20
175.9871907112116
 30
0.0
 10
228.3386894502938
 20
175.9871907112116
 30
0.0
 10
229.781839949065
 20
175.9878797303086
 30
0.0
 10
231.2594414026886
 20
175.9878797303086
 30
0.0
  0
SPLINE
  5
408
330
3C
100
AcDbEntity
  8
Layer 1
 62
     7
370
    15
100
AcDbSpline
210
0.0
220
0.0
230
1.0
 70
     8
 71
     3
 72
     8
 73
     4
 74
     0
 42
0.0000000001
 43
0.0000000001
 40
0.0
 40
0.0
 40
0.0
 40
0.0
 40
1.0
 40
1.0
 40
1.0
 40
1.0
 10
231.2594414026886
 20
175.9878797303086
 30
0.0
 10
232.768393225228
 20
175.9878797303086
 30
0.0
 10
234.312485021717
 20
175.9878797303086
 30
0.0
 10
235.8865491489277
 20
175.9892577685027
 30
0.0
  0
SPLINE
  5
409
330
3C
100
AcDbEntity
  8
Layer 1
 62
     7
370
    15
100
AcDbSpline
210
0.0
220
0.0
230
1.0
 70
     8
 71
     3
 72
     8
 73
     4
 74
     0
 42
0.0000000001
 43
0.0000000001
 40
0.0
 40
0.0
 40
0.0
 40
0.0
 40
1.0
 40
1.0
 40
1.0
 40
1.0
 10
235.8865491489277
 20
175.9892577685027
 30
0.0
 10
237.4712930721426
 20
175.9892577685027
 30
0.0
 10
239.0866983451762
 20
175.9892577685027
 30
0.0
 10
240.7265637961552
 20
175.9899467875997
 30
0.0
  0
SPLINE
  5
40A
330
3C
100
AcDbEntity
  8
Layer 1
 62
     7
370
    15
100
AcDbSpline
210
0.0
220
0.0
230
1.0
 70
    24
 71
     3
 72
     8
 73
     4
 74
     0
 42
0.0000000001
 43
0.0000000001
 40
0.0
 40
0.0
 40
0.0
 40
0.0
 40
1.0
 40
1.0
 40
1.0
 40
1.0
 10
240.7265637961552
 20
175.9899467875997
 30
0.0
 10
242.3078626238849
 20
175.9899467875997
 30
0.0
 10
243.9118990818172
 20
175.9899467875997
 30
0.0
 10
245.5321274885302
 20
175.9899467875997
 30
0.0
  0
SPLINE
  5
40B
330
3C
100
AcDbEntity
  8
Layer 1
 62
     7
370
    15
100
AcDbSpline
210
0.0
220
0.0
230
1.0
 70
     8
 71
     3
 72
     8
 73
     4
 74
     0
 42
0.0000000001
 43
0.0000000001
 40
0.0
 40
0.0
 40
0.0
 40
0.0
 40
1.0
 40
1.0
 40
1.0
 40
1.0
 10
245.5321274885302
 20
175.9899467875997
 30
0.0
 10
247.1644137294415
 20
175.9899467875997
 30
0.0
 10
248.8142699573277
 20
175.9906358066968
 30
0.0
 10
250.4744614716696
 20
175.9906358066968
 30
0.0
  0
SPLINE
  5
40C
330
3C
100
AcDbEntity
  8
Layer 1
 62
     7
370
    15
100
AcDbSpline
210
0.0
220
0.0
230
1.0
 70
    24
 71
     3
 72
     8
 73
     4
 74
     0
 42
0.0000000001
 43
0.0000000001
 40
0.0
 40
0.0
 40
0.0
 40
0.0
 40
1.0
 40
1.0
 40
1.0
 40
1.0
 10
250.4744614716696
 20
175.9906358066968
 30
0.0
 10
252.1708264886066
 20
175.9906358066968
 30
0.0
 10
253.8795938492905
 20
175.9906358066968
 30
0.0
 10
255.5942178722994
 20
175.9906358066968
 30
0.0
  0
SPLINE
  5
40D
330
3C
100
AcDbEntity
  8
Layer 1
 62
     7
370
    15
100
AcDbSpline
210
0.0
220
0.0
230
1.0
 70
    24
 71
     3
 72
     8
 73
     4
 74
     0
 42
0.0000000001
 43
0.0000000001
 40
0.0
 40
0.0
 40
0.0
 40
0.0
 40
1.0
 40
1.0
 40
1.0
 40
1.0
 10
255.5942178722994
 20
175.9906358066968
 30
0.0
 10
257.3202107104095
 20
175.9906358066968
 30
0.0
 10
259.0530937394902
 20
175.9906358066968
 30
0.0
 10
260.7852877494738
 20
175.9906358066968
 30
0.0
  0
SPLINE
  5
40E
330
3C
100
AcDbEntity
  8
Layer 1
 62
     7
370
    15
100
AcDbSpline
210
0.0
220
0.0
230
1.0
 70
    24
 71
     3
 72
     8
 73
     4
 74
     0
 42
0.0000000001
 43
0.0000000001
 40
0.0
 40
0.0
 40
0.0
 40
0.0
 40
1.0
 40
1.0
 40
1.0
 40
1.0
 10
260.7852877494738
 20
175.9906358066968
 30
0.0
 10
262.4558145502715
 20
175.9906358066968
 30
0.0
 10
264.1259968415206
 20
175.9906358066968
 30
0.0
 10
265.7889444322507
 20
175.9906358066968
 30
0.0
  0
SPLINE
  5
40F
330
3C
100
AcDbEntity
  8
Layer 1
 62
     7
370
    15
100
AcDbSpline
210
0.0
220
0.0
230
1.0
 70
    24
 71
     3
 72
     8
 73
     4
 74
     0
 42
0.0000000001
 43
0.0000000001
 40
0.0
 40
0.0
 40
0.0
 40
0.0
 40
1.0
 40
1.0
 40
1.0
 40
1.0
 10
265.7889444322507
 20
175.9906358066968
 30
0.0
 10
267.4646388762762
 20
175.9906358066968
 30
0.0
 10
269.1334431293312
 20
175.9906358066968
 30
0.0
 10
270.7895005290908
 20
175.9906358066968
 30
0.0
  0
SPLINE
  5
410
330
3C
100
AcDbEntity
  8
Layer 1
 62
     7
370
    15
100
AcDbSpline
210
0.0
220
0.0
230
1.0
 70
     8
 71
     3
 72
     8
 73
     4
 74
     0
 42
0.0000000001
 43
0.0000000001
 40
0.0
 40
0.0
 40
0.0
 40
0.0
 40
1.0
 40
1.0
 40
1.0
 40
1.0
 10
270.7895005290908
 20
175.9906358066968
 30
0.0
 10
272.4824204505426
 20
175.9899467875997
 30
0.0
 10
274.1622490091504
 20
175.9899467875997
 30
0.0
 10
275.8234740521379
 20
175.9899467875997
 30
0.0
  0
SPLINE
  5
411
330
3C
100
AcDbEntity
  8
Layer 1
 62
     7
370
    15
100
AcDbSpline
210
0.0
220
0.0
230
1.0
 70
     8
 71
     3
 72
     8
 73
     4
 74
     0
 42
0.0000000001
 43
0.0000000001
 40
0.0
 40
0.0
 40
0.0
 40
0.0
 40
1.0
 40
1.0
 40
1.0
 40
1.0
 10
275.8234740521379
 20
175.9899467875997
 30
0.0
 10
277.4964124197752
 20
175.9899467875997
 30
0.0
 10
279.1504027622437
 20
175.9899467875997
 30
0.0
 10
280.7792439076698
 20
175.9892577685027
 30
0.0
  0
SPLINE
  5
412
330
3C
100
AcDbEntity
  8
Layer 1
 62
     7
370
    15
100
AcDbSpline
210
0.0
220
0.0
230
1.0
 70
    24
 71
     3
 72
     8
 73
     4
 74
     0
 42
0.0000000001
 43
0.0000000001
 40
0.0
 40
0.0
 40
0.0
 40
0.0
 40
1.0
 40
1.0
 40
1.0
 40
1.0
 10
280.7792439076698
 20
175.9892577685027
 30
0.0
 10
282.3512409775893
 20
175.9892577685027
 30
0.0
 10
283.8987778695635
 20
175.9892577685027
 30
0.0
 10
285.4187539976558
 20
175.9892577685027
 30
0.0
  0
SPLINE
  5
413
330
3C
100
AcDbEntity
  8
Layer 1
 62
     7
370
    15
100
AcDbSpline
210
0.0
220
0.0
230
1.0
 70
     8
 71
     3
 72
     8
 73
     4
 74
     0
 42
0.0000000001
 43
0.0000000001
 40
0.0
 40
0.0
 40
0.0
 40
0.0
 40
1.0
 40
1.0
 40
1.0
 40
1.0
 10
285.4187539976558
 20
175.9892577685027
 30
0.0
 10
286.9483763931067
 20
175.9878797303086
 30
0.0
 10
288.44940449603
 20
175.9878797303086
 30
0.0
 10
289.9149481154553
 20
175.9878797303086
 30
0.0
  0
SPLINE
  5
414
330
3C
100
AcDbEntity
  8
Layer 1
 62
     7
370
    15
100
AcDbSpline
210
0.0
220
0.0
230
1.0
 70
     8
 71
     3
 72
     8
 73
     4
 74
     0
 42
0.0000000001
 43
0.0000000001
 40
0.0
 40
0.0
 40
0.0
 40
0.0
 40
1.0
 40
1.0
 40
1.0
 40
1.0
 10
289.9149481154553
 20
175.9878797303086
 30
0.0
 10
291.3708454675219
 20
175.9878797303086
 30
0.0
 10
292.7933253933816
 20
175.9871907112116
 30
0.0
 10
294.1768757402579
 20
175.9871907112116
 30
0.0
  0
SPLINE
  5
415
330
3C
100
AcDbEntity
  8
Layer 1
 62
     7
370
    15
100
AcDbSpline
210
0.0
220
0.0
230
1.0
 70
     8
 71
     3
 72
     8
 73
     4
 74
     0
 42
0.0000000001
 43
0.0000000001
 40
0.0
 40
0.0
 40
0.0
 40
0.0
 40
1.0
 40
1.0
 40
1.0
 40
1.0
 10
294.1768757402579
 20
175.9871907112116
 30
0.0
 10
295.5693833353959
 20
175.9871907112116
 30
0.0
 10
296.9229613515505
 20
175.9865016921145
 30
0.0
 10
298.233131164591
 20
175.9865016921145
 30
0.0
  0
SPLINE
  5
416
330
3C
100
AcDbEntity
  8
Layer 1
 62
     7
370
    15
100
AcDbSpline
210
0.0
220
0.0
230
1.0
 70
     8
 71
     3
 72
     8
 73
     4
 74
     0
 42
0.0000000001
 43
0.0000000001
 40
0.0
 40
0.0
 40
0.0
 40
0.0
 40
1.0
 40
1.0
 40
1.0
 40
1.0
 10
298.233131164591
 20
175.9865016921145
 30
0.0
 10
299.5708617415136
 20
175.9865016921145
 30
0.0
 10
300.8627725484822
 20
175.9858126730174
 30
0.0
 10
302.1040404518178
 20
175.9858126730174
 30
0.0
  0
SPLINE
  5
417
330
3C
100
AcDbEntity
  8
Layer 1
 62
     7
370
    15
100
AcDbSpline
210
0.0
220
0.0
230
1.0
 70
     8
 71
     3
 72
     8
 73
     4
 74
     0
 42
0.0000000001
 43
0.0000000001
 40
0.0
 40
0.0
 40
0.0
 40
0.0
 40
1.0
 40
1.0
 40
1.0
 40
1.0
 10
302.1040404518178
 20
175.9858126730174
 30
0.0
 10
303.3552991320605
 20
175.9858126730174
 30
0.0
 10
304.5538478513789
 20
175.9851236539204
 30
0.0
 10
305.6969305333848
 20
175.9851236539204
 30
0.0
  0
SPLINE
  5
418
330
3C
100
AcDbEntity
  8
Layer 1
 62
     7
370
    15
100
AcDbSpline
210
0.0
220
0.0
230
1.0
 70
     8
 71
     3
 72
     8
 73
     4
 74
     0
 42
0.0000000001
 43
0.0000000001
 40
0.0
 40
0.0
 40
0.0
 40
0.0
 40
1.0
 40
1.0
 40
1.0
 40
1.0
 10
305.6969305333848
 20
175.9851236539204
 30
0.0
 10
306.8010836364074
 20
175.9851236539204
 30
0.0
 10
307.8532157976027
 20
175.9858126730174
 30
0.0
 10
308.8498819214855
 20
175.9858126730174
 30
0.0
  0
SPLINE
  5
419
330
3C
100
AcDbEntity
  8
Layer 1
 62
     7
370
    15
100
AcDbSpline
210
0.0
220
0.0
230
1.0
 70
     8
 71
     3
 72
     8
 73
     4
 74
     0
 42
0.0000000001
 43
0.0000000001
 40
0.0
 40
0.0
 40
0.0
 40
0.0
 40
1.0
 40
1.0
 40
1.0
 40
1.0
 10
308.8498819214855
 20
175.9858126730174
 30
0.0
 10
309.8530937267902
 20
175.9865016921145
 30
0.0
 10
310.8008394947825
 20
175.9865016921145
 30
0.0
 10
311.6876070726858
 20
175.9871907112116
 30
0.0
  0
SPLINE
  5
41A
330
3C
100
AcDbEntity
  8
Layer 1
 62
     7
370
    15
100
AcDbSpline
210
0.0
220
0.0
230
1.0
 70
     8
 71
     3
 72
     8
 73
     4
 74
     0
 42
0.0000000001
 43
0.0000000001
 40
0.0
 40
0.0
 40
0.0
 40
0.0
 40
1.0
 40
1.0
 40
1.0
 40
1.0
 10
311.6876070726858
 20
175.9871907112116
 30
0.0
 10
312.5943562044035
 20
175.9871907112116
 30
0.0
 10
313.4387491078382
 20
175.9878797303086
 30
0.0
 10
314.2173406875047
 20
175.9878797303086
 30
0.0
  0
SPLINE
  5
41B
330
3C
100
AcDbEntity
  8
Layer 1
 62
     7
370
    15
100
AcDbSpline
210
0.0
220
0.0
230
1.0
 70
     8
 71
     3
 72
     8
 73
     4
 74
     0
 42
0.0000000001
 43
0.0000000001
 40
0.0
 40
0.0
 40
0.0
 40
0.0
 40
1.0
 40
1.0
 40
1.0
 40
1.0
 10
314.2173406875047
 20
175.9878797303086
 30
0.0
 10
315.0017889294961
 20
175.9892577685027
 30
0.0
 10
315.7207803572678
 20
175.9892577685027
 30
0.0
 10
316.3694918371403
 20
175.9899467875997
 30
0.0
  0
SPLINE
  5
41C
330
3C
100
AcDbEntity
  8
Layer 1
 62
     7
370
    15
100
AcDbSpline
210
0.0
220
0.0
230
1.0
 70
     8
 71
     3
 72
     8
 73
     4
 74
     0
 42
0.0000000001
 43
0.0000000001
 40
0.0
 40
0.0
 40
0.0
 40
0.0
 40
1.0
 40
1.0
 40
1.0
 40
1.0
 10
316.3694918371403
 20
175.9899467875997
 30
0.0
 10
316.9968437250043
 20
175.9906358066968
 30
0.0
 10
317.5583942891
 20
175.9906358066968
 30
0.0
 10
318.0558660771701
 20
175.9913248257938
 30
0.0
  0
SPLINE
  5
41D
330
3C
100
AcDbEntity
  8
Layer 1
 62
     7
370
    15
100
AcDbSpline
210
0.0
220
0.0
230
1.0
 70
     8
 71
     3
 72
     8
 73
     4
 74
     0
 42
0.0000000001
 43
0.0000000001
 40
0.0
 40
0.0
 40
0.0
 40
0.0
 40
1.0
 40
1.0
 40
1.0
 40
1.0
 10
318.0558660771701
 20
175.9913248257938
 30
0.0
 10
318.5557494320798
 20
175.9913248257938
 30
0.0
 10
318.9908649918669
 20
175.9920138448909
 30
0.0
 10
319.3519109987211
 20
175.993391883085
 30
0.0
  0
SPLINE
  5
41E
330
3C
100
AcDbEntity
  8
Layer 1
 62
     7
370
    15
100
AcDbSpline
210
0.0
220
0.0
230
1.0
 70
     8
 71
     3
 72
     8
 73
     4
 74
     0
 42
0.0000000001
 43
0.0000000001
 40
0.0
 40
0.0
 40
0.0
 40
0.0
 40
1.0
 40
1.0
 40
1.0
 40
1.0
 10
319.3519109987211
 20
175.993391883085
 30
0.0
 10
319.7205362156428
 20
175.993391883085
 30
0.0
 10
320.0116467841464
 20
175.994080902182
 30
0.0
 10
320.2503919012742
 20
175.994080902182
 30
0.0
  0
SPLINE
  5
41F
330
3C
100
AcDbEntity
  8
Layer 1
 62
     7
370
    15
100
AcDbSpline
210
0.0
220
0.0
230
1.0
 70
     8
 71
     3
 72
     8
 73
     4
 74
     0
 42
0.0000000001
 43
0.0000000001
 40
0.0
 40
0.0
 40
0.0
 40
0.0
 40
1.0
 40
1.0
 40
1.0
 40
1.0
 10
320.2503919012742
 20
175.994080902182
 30
0.0
 10
320.4908595661446
 20
175.9947699212791
 30
0.0
 10
320.6772392318967
 20
175.9947699212791
 30
0.0
 10
320.7144462631373
 20
175.9954589403762
 30
0.0
  0
SPLINE
  5
420
330
3C
100
AcDbEntity
  8
Layer 1
 62
     7
370
    15
100
AcDbSpline
210
0.0
220
0.0
230
1.0
 70
    24
 71
     3
 72
     8
 73
     4
 74
     0
 42
0.0000000001
 43
0.0000000001
 40
0.0
 40
0.0
 40
0.0
 40
0.0
 40
1.0
 40
1.0
 40
1.0
 40
1.0
 10
320.7144462631373
 20
175.9954589403762
 30
0.0
 10
320.7254705686902
 20
175.9954589403762
 30
0.0
 10
320.7237480209475
 20
175.9954589403762
 30
0.0
 10
320.722025473205
 20
175.9954589403762
 30
0.0
  0
POLYLINE
  5
421
330
3C
100
AcDbEntity
  8
Layer 1
 62
     7
370
    15
100
AcDb2dPolyline
 66
     1
 10
0.0
 20
0.0
 30
0.0
  0
VERTEX
  5
422
330
421
100
AcDbEntity
  8
Layer 1
 62
     7
370
    15
100
AcDbVertex
100
AcDb2dVertex
 10
471.6235811537955
 20
184.7032822888936
 30
0.0
  0
VERTEX
  5
423
330
421
100
AcDbEntity
  8
Layer 1
 62
     7
370
    15
100
AcDbVertex
100
AcDb2dVertex
 10
471.6235811537955
 20
184.7032822888936
 30
0.0
  0
SEQEND
  5
424
330
421
100
AcDbEntity
  8
Layer 1
370
    15
  0
POLYLINE
  5
425
330
3C
100
AcDbEntity
  8
Layer 1
 62
     7
370
    15
100
AcDb2dPolyline
 66
     1
 10
0.0
 20
0.0
 30
0.0
  0
VERTEX
  5
426
330
425
100
AcDbEntity
  8
Layer 1
 62
     7
370
    15
100
AcDbVertex
100
AcDb2dVertex
 10
471.6235811537955
 20
184.7032822888936
 30
0.0
  0
VERTEX
  5
427
330
425
100
AcDbEntity
  8
Layer 1
 62
     7
370
    15
100
AcDbVertex
100
AcDb2dVertex
 10
471.7152206937031
 20
184.6412705701591
 30
0.0
  0
SEQEND
  5
428
330
425
100
AcDbEntity
  8
Layer 1
370
    15
  0
SPLINE
  5
429
330
3C
100
AcDbEntity
  8
Layer 1
 62
     7
370
    15
100
AcDbSpline
210
0.0
220
0.0
230
1.0
 70
     8
 71
     3
 72
     8
 73
     4
 74
     0
 42
0.0000000001
 43
0.0000000001
 40
0.0
 40
0.0
 40
0.0
 40
0.0
 40
1.0
 40
1.0
 40
1.0
 40
1.0
 10
471.7152206937031
 20
184.6412705701591
 30
0.0
 10
471.7303791138382
 20
184.6323133218975
 30
0.0
 10
471.7331351902264
 20
184.6323133218975
 30
0.0
 10
471.7345132284206
 20
184.6330023409945
 30
0.0
  0
POLYLINE
  5
42A
330
3C
100
AcDbEntity
  8
Layer 1
 62
     7
370
    15
100
AcDb2dPolyline
 66
     1
 10
0.0
 20
0.0
 30
0.0
  0
VERTEX
  5
42B
330
42A
100
AcDbEntity
  8
Layer 1
 62
     7
370
    15
100
AcDbVertex
100
AcDb2dVertex
 10
48.77393933242458
 20
184.6316243028004
 30
0.0
  0
VERTEX
  5
42C
330
42A
100
AcDbEntity
  8
Layer 1
 62
     7
370
    15
100
AcDbVertex
100
AcDb2dVertex
 10
48.77393933242458
 20
184.6316243028004
 30
0.0
  0
SEQEND
  5
42D
330
42A
100
AcDbEntity
  8
Layer 1
370
    15
  0
SPLINE
  5
42E
330
3C
100
AcDbEntity
  8
Layer 1
 62
     7
370
    15
100
AcDbSpline
210
0.0
220
0.0
230
1.0
 70
    24
 71
     3
 72
     8
 73
     4
 74
     0
 42
0.0000000001
 43
0.0000000001
 40
0.0
 40
0.0
 40
0.0
 40
0.0
 40
1.0
 40
1.0
 40
1.0
 40
1.0
 10
24.05520697098273
 20
211.3269801989044
 30
0.0
 10
24.05520697098273
 20
211.1416340617979
 30
0.0
 10
24.05520697098273
 20
210.9562879246915
 30
0.0
 10
24.05520697098273
 20
210.8777397476278
 30
0.0
  0
SPLINE
  5
42F
330
3C
100
AcDbEntity
  8
Layer 1
 62
     7
370
    15
100
AcDbSpline
210
0.0
220
0.0
230
1.0
 70
    24
 71
     3
 72
     8
 73
     4
 74
     0
 42
0.0000000001
 43
0.0000000001
 40
0.0
 40
0.0
 40
0.0
 40
0.0
 40
1.0
 40
1.0
 40
1.0
 40
1.0
 10
24.05520697098273
 20
210.8777397476278
 30
0.0
 10
24.05520697098273
 20
210.7998805896611
 30
0.0
 10
24.05520697098273
 20
210.8288193917373
 30
0.0
 10
24.05520697098273
 20
210.8474229073576
 30
0.0
  0
SPLINE
  5
430
330
3C
100
AcDbEntity
  8
Layer 1
 62
     7
370
    15
100
AcDbSpline
210
0.0
220
0.0
230
1.0
 70
    24
 71
     3
 72
     8
 73
     4
 74
     0
 42
0.0000000001
 43
0.0000000001
 40
0.0
 40
0.0
 40
0.0
 40
0.0
 40
1.0
 40
1.0
 40
1.0
 40
1.0
 10
24.05520697098273
 20
210.8474229073576
 30
0.0
 10
24.05520697098273
 20
210.9197699125478
 30
0.0
 10
24.05520697098273
 20
210.8088378379228
 30
0.0
 10
24.05520697098273
 20
210.7867892268172
 30
0.0
  0
SPLINE
  5
431
330
3C
100
AcDbEntity
  8
Layer 1
 62
     7
370
    15
100
AcDbSpline
210
0.0
220
0.0
230
1.0
 70
    24
 71
     3
 72
     8
 73
     4
 74
     0
 42
0.0000000001
 43
0.0000000001
 40
0.0
 40
0.0
 40
0.0
 40
0.0
 40
1.0
 40
1.0
 40
1.0
 40
1.0
 10
24.05520697098273
 20
210.7867892268172
 30
0.0
 10
24.05520697098273
 20
210.7764539403614
 30
0.0
 10
24.05520697098273
 20
210.7833441313319
 30
0.0
 10
24.05520697098273
 20
210.7902343223024
 30
0.0
  0
SPLINE
  5
432
330
3C
100
AcDbEntity
  8
Layer 1
 62
     7
370
    15
100
AcDbSpline
210
0.0
220
0.0
230
1.0
 70
    24
 71
     3
 72
     8
 73
     4
 74
     0
 42
0.0000000001
 43
0.0000000001
 40
0.0
 40
0.0
 40
0.0
 40
0.0
 40
1.0
 40
1.0
 40
1.0
 40
1.0
 10
496.4544513732823
 20
210.7909233413995
 30
0.0
 10
496.4544513732823
 20
210.7805880549438
 30
0.0
 10
496.4544513732823
 20
210.770252768488
 30
0.0
 10
496.4544513732823
 20
210.8005696087582
 30
0.0
  0
SPLINE
  5
433
330
3C
100
AcDbEntity
  8
Layer 1
 62
     7
370
    15
100
AcDbSpline
210
0.0
220
0.0
230
1.0
 70
    24
 71
     3
 72
     8
 73
     4
 74
     0
 42
0.0000000001
 43
0.0000000001
 40
0.0
 40
0.0
 40
0.0
 40
0.0
 40
1.0
 40
1.0
 40
1.0
 40
1.0
 10
496.4544513732823
 20
210.8005696087582
 30
0.0
 10
496.4544513732823
 20
210.8246852771549
 30
0.0
 10
496.4544513732823
 20
210.8729166139484
 30
0.0
 10
496.4544513732823
 20
210.8405327163871
 30
0.0
  0
SPLINE
  5
434
330
3C
100
AcDbEntity
  8
Layer 1
 62
     7
370
    15
100
AcDbSpline
210
0.0
220
0.0
230
1.0
 70
    24
 71
     3
 72
     8
 73
     4
 74
     0
 42
0.0000000001
 43
0.0000000001
 40
0.0
 40
0.0
 40
0.0
 40
0.0
 40
1.0
 40
1.0
 40
1.0
 40
1.0
 10
496.4544513732823
 20
210.8405327163871
 30
0.0
 10
496.4544513732823
 20
210.8246852771549
 30
0.0
 10
496.4544513732823
 20
210.7888562841084
 30
0.0
 10
496.4544513732823
 20
210.866715442075
 30
0.0
  0
SPLINE
  5
435
330
3C
100
AcDbEntity
  8
Layer 1
 62
     7
370
    15
100
AcDbSpline
210
0.0
220
0.0
230
1.0
 70
    24
 71
     3
 72
     8
 73
     4
 74
     0
 42
0.0000000001
 43
0.0000000001
 40
0.0
 40
0.0
 40
0.0
 40
0.0
 40
1.0
 40
1.0
 40
1.0
 40
1.0
 10
496.4544513732823
 20
210.866715442075
 30
0.0
 10
496.4544513732823
 20
210.9438855809446
 30
0.0
 10
496.4544513732823
 20
211.1361219090215
 30
0.0
 10
496.4544513732823
 20
211.3269801989044
 30
0.0
  0
POLYLINE
  5
436
330
3C
100
AcDbEntity
  8
Layer 1
 62
     7
370
    15
100
AcDb2dPolyline
 66
     1
 10
0.0
 20
0.0
 30
0.0
  0
VERTEX
  5
437
330
436
100
AcDbEntity
  8
Layer 1
 62
     7
370
    15
100
AcDbVertex
100
AcDb2dVertex
 10
260.2543985351969
 20
173.0471462240993
 30
0.0
  0
VERTEX
  5
438
330
436
100
AcDbEntity
  8
Layer 1
 62
     7
370
    15
100
AcDbVertex
100
AcDb2dVertex
 10
317.8319348706289
 20
173.0471462240993
 30
0.0
  0
SEQEND
  5
439
330
436
100
AcDbEntity
  8
Layer 1
370
    15
  0
POLYLINE
  5
43A
330
3C
100
AcDbEntity
  8
Layer 1
 62
     7
370
    15
100
AcDb2dPolyline
 66
     1
 10
0.0
 20
0.0
 30
0.0
  0
VERTEX
  5
43B
330
43A
100
AcDbEntity
  8
Layer 1
 62
     7
370
    15
100
AcDbVertex
100
AcDb2dVertex
 10
202.6777234736361
 20
173.0471462240993
 30
0.0
  0
VERTEX
  5
43C
330
43A
100
AcDbEntity
  8
Layer 1
 62
     7
370
    15
100
AcDbVertex
100
AcDb2dVertex
 10
260.2543985351969
 20
173.0471462240993
 30
0.0
  0
SEQEND
  5
43D
330
43A
100
AcDbEntity
  8
Layer 1
370
    15
  0
POLYLINE
  5
43E
330
3C
100
AcDbEntity
  8
Layer 1
 62
     7
370
    15
100
AcDb2dPolyline
 66
     1
 10
0.0
 20
0.0
 30
0.0
  0
VERTEX
  5
43F
330
43E
100
AcDbEntity
  8
Layer 1
 62
     7
370
    15
100
AcDbVertex
100
AcDb2dVertex
 10
260.2543985351969
 20
170.9676865892025
 30
0.0
  0
VERTEX
  5
440
330
43E
100
AcDbEntity
  8
Layer 1
 62
     7
370
    15
100
AcDbVertex
100
AcDb2dVertex
 10
305.4027193789445
 20
170.9676865892025
 30
0.0
  0
SEQEND
  5
441
330
43E
100
AcDbEntity
  8
Layer 1
370
    15
  0
POLYLINE
  5
442
330
3C
100
AcDbEntity
  8
Layer 1
 62
     7
370
    15
100
AcDb2dPolyline
 66
     1
 10
0.0
 20
0.0
 30
0.0
  0
VERTEX
  5
443
330
442
100
AcDbEntity
  8
Layer 1
 62
     7
370
    15
100
AcDbVertex
100
AcDb2dVertex
 10
215.1067667105462
 20
170.9676865892025
 30
0.0
  0
VERTEX
  5
444
330
442
100
AcDbEntity
  8
Layer 1
 62
     7
370
    15
100
AcDbVertex
100
AcDb2dVertex
 10
260.2543985351969
 20
170.9676865892025
 30
0.0
  0
SEQEND
  5
445
330
442
100
AcDbEntity
  8
Layer 1
370
    15
  0
POLYLINE
  5
446
330
3C
100
AcDbEntity
  8
Layer 1
 62
   253
370
    15
100
AcDb2dPolyline
 66
     1
 10
0.0
 20
0.0
 30
0.0
  0
VERTEX
  5
447
330
446
100
AcDbEntity
  8
Layer 1
 62
   253
370
    15
100
AcDbVertex
100
AcDb2dVertex
 10
48.77393933242458
 20
184.6316243028004
 30
0.0
  0
VERTEX
  5
448
330
446
100
AcDbEntity
  8
Layer 1
 62
   253
370
    15
100
AcDbVertex
100
AcDb2dVertex
 10
48.77238903945621
 20
184.6281792073152
 30
0.0
  0
VERTEX
  5
449
330
446
100
AcDbEntity
  8
Layer 1
 62
   253
370
    15
100
AcDbVertex
100
AcDb2dVertex
 10
48.85920544568451
 20
184.6846787732733
 30
0.0
  0
VERTEX
  5
44A
330
446
100
AcDbEntity
  8
Layer 1
 62
   253
370
    15
100
AcDbVertex
100
AcDb2dVertex
 10
48.8853881713724
 20
184.7032822888936
 30
0.0
  0
SEQEND
  5
44B
330
446
100
AcDbEntity
  8
Layer 1
370
    15
  0
POLYLINE
  5
44C
330
3C
100
AcDbEntity
  8
Layer 1
370
     0
100
AcDb2dPolyline
 66
     1
 10
0.0
 20
0.0
 30
0.0
  0
VERTEX
  5
44D
330
44C
100
AcDbEntity
  8
Layer 1
370
     0
100
AcDbVertex
100
AcDb2dVertex
 10
680.2544296259433
 20
170.9676865892025
 30
0.0
  0
VERTEX
  5
44E
330
44C
100
AcDbEntity
  8
Layer 1
370
     0
100
AcDbVertex
100
AcDb2dVertex
 10
685.254641213235
 20
140.9677951036469
 30
0.0
  0
VERTEX
  5
44F
330
44C
100
AcDbEntity
  8
Layer 1
370
     0
100
AcDbVertex
100
AcDb2dVertex
 10
675.2542180386517
 20
140.9677951036469
 30
0.0
  0
SEQEND
  5
450
330
44C
100
AcDbEntity
  8
Layer 1
370
     0
  0
HATCH
  5
451
330
3C
100
AcDbEntity
  8
Layer 1
 62
     7
100
AcDbHatch
 10
0.0
 20
0.0
 30
0.0
210
0.0
220
0.0
230
1.0
  2
SOLID
 70
     1
 71
     0
 91
        1
 92
        1
 93
        3
 72
     1
 10
680.2544296259433
 20
170.9676865892025
 11
685.254641213235
 21
140.9677951036469
 72
     1
 10
685.254641213235
 20
140.9677951036469
 11
675.2542180386517
 21
140.9677951036469
 72
     1
 10
675.2542180386517
 20
140.9677951036469
 11
680.2544296259433
 21
170.9676865892025
 97
        0
 75
     2
 76
     1
 98
        0
  0
POLYLINE
  5
452
330
3C
100
AcDbEntity
  8
Layer 1
370
     0
100
AcDb2dPolyline
 66
     1
 10
0.0
 20
0.0
 30
0.0
  0
VERTEX
  5
453
330
452
100
AcDbEntity
  8
Layer 1
370
     0
100
AcDbVertex
100
AcDb2dVertex
 10
680.2544296259433
 20
382.1671982551526
 30
0.0
  0
VERTEX
  5
454
330
452
100
AcDbEntity
  8
Layer 1
370
     0
100
AcDbVertex
100
AcDb2dVertex
 10
675.2542180386517
 20
412.1670897407083
 30
0.0
  0
VERTEX
  5
455
330
452
100
AcDbEntity
  8
Layer 1
370
     0
100
AcDbVertex
100
AcDb2dVertex
 10
685.254641213235
 20
412.1670897407083
 30
0.0
  0
SEQEND
  5
456
330
452
100
AcDbEntity
  8
Layer 1
370
     0
  0
HATCH
  5
457
330
3C
100
AcDbEntity
  8
Layer 1
 62
     7
100
AcDbHatch
 10
0.0
 20
0.0
 30
0.0
210
0.0
220
0.0
230
1.0
  2
SOLID
 70
     1
 71
     0
 91
        1
 92
        1
 93
        3
 72
     1
 10
680.2544296259433
 20
382.1671982551526
 11
675.2542180386517
 21
412.1670897407083
 72
     1
 10
675.2542180386517
 20
412.1670897407083
 11
685.254641213235
 21
412.1670897407083
 72
     1
 10
685.254641213235
 20
412.1670897407083
 11
680.2544296259433
 21
382.1671982551526
 97
        0
 75
     2
 76
     1
 98
        0
  0
POLYLINE
  5
458
330
3C
100
AcDbEntity
  8
Layer 1
 62
     7
370
    25
100
AcDb2dPolyline
 66
     1
 10
0.0
 20
0.0
 30
0.0
  0
VERTEX
  5
459
330
458
100
AcDbEntity
  8
Layer 1
 62
     7
370
    25
100
AcDbVertex
100
AcDb2dVertex
 10
558.2339706720735
 20
170.9676865892025
 30
0.0
  0
VERTEX
  5
45A
330
458
100
AcDbEntity
  8
Layer 1
 62
     7
370
    25
100
AcDbVertex
100
AcDb2dVertex
 10
690.2541637814295
 20
170.9676865892025
 30
0.0
  0
SEQEND
  5
45B
330
458
100
AcDbEntity
  8
Layer 1
370
    25
  0
POLYLINE
  5
45C
330
3C
100
AcDbEntity
  8
Layer 1
 62
     7
370
    25
100
AcDb2dPolyline
 66
     1
 10
0.0
 20
0.0
 30
0.0
  0
VERTEX
  5
45D
330
45C
100
AcDbEntity
  8
Layer 1
 62
     7
370
    25
100
AcDbVertex
100
AcDb2dVertex
 10
559.2654322603573
 20
382.1671982551526
 30
0.0
  0
VERTEX
  5
45E
330
45C
100
AcDbEntity
  8
Layer 1
 62
     7
370
    25
100
AcDbVertex
100
AcDb2dVertex
 10
690.2541637814295
 20
382.1671982551526
 30
0.0
  0
SEQEND
  5
45F
330
45C
100
AcDbEntity
  8
Layer 1
370
    25
  0
POLYLINE
  5
460
330
3C
100
AcDbEntity
  8
Layer 1
 62
     7
370
    25
100
AcDb2dPolyline
 66
     1
 10
0.0
 20
0.0
 30
0.0
  0
VERTEX
  5
461
330
460
100
AcDbEntity
  8
Layer 1
 62
     7
370
    25
100
AcDbVertex
100
AcDb2dVertex
 10
680.2544296259433
 20
170.9676865892025
 30
0.0
  0
VERTEX
  5
462
330
460
100
AcDbEntity
  8
Layer 1
 62
     7
370
    25
100
AcDbVertex
100
AcDb2dVertex
 10
680.2544296259433
 20
110.9679036180914
 30
0.0
  0
SEQEND
  5
463
330
460
100
AcDbEntity
  8
Layer 1
370
    25
  0
POLYLINE
  5
464
330
3C
100
AcDbEntity
  8
Layer 1
 62
     7
370
    25
100
AcDb2dPolyline
 66
     1
 10
0.0
 20
0.0
 30
0.0
  0
VERTEX
  5
465
330
464
100
AcDbEntity
  8
Layer 1
 62
     7
370
    25
100
AcDbVertex
100
AcDb2dVertex
 10
680.2544296259433
 20
170.9676865892025
 30
0.0
  0
VERTEX
  5
466
330
464
100
AcDbEntity
  8
Layer 1
 62
     7
370
    25
100
AcDbVertex
100
AcDb2dVertex
 10
680.2544296259433
 20
382.1671982551526
 30
0.0
  0
SEQEND
  5
467
330
464
100
AcDbEntity
  8
Layer 1
370
    25
  0
POLYLINE
  5
468
330
3C
100
AcDbEntity
  8
Layer 1
 62
     7
370
    25
100
AcDb2dPolyline
 66
     1
 10
0.0
 20
0.0
 30
0.0
  0
VERTEX
  5
469
330
468
100
AcDbEntity
  8
Layer 1
 62
     7
370
    25
100
AcDbVertex
100
AcDb2dVertex
 10
680.2544296259433
 20
382.1671982551526
 30
0.0
  0
VERTEX
  5
46A
330
468
100
AcDbEntity
  8
Layer 1
 62
     7
370
    25
100
AcDbVertex
100
AcDb2dVertex
 10
680.2544296259433
 20
442.1676702453609
 30
0.0
  0
SEQEND
  5
46B
330
468
100
AcDbEntity
  8
Layer 1
370
    25
  0
POLYLINE
  5
46C
330
3C
100
AcDbEntity
  8
Layer 1
 62
     7
370
    25
100
AcDb2dPolyline
 66
     1
 10
0.0
 20
0.0
 30
0.0
  0
VERTEX
  5
46D
330
46C
100
AcDbEntity
  8
Layer 1
 62
     7
370
    25
100
AcDbVertex
100
AcDb2dVertex
 10
632.7396726933777
 20
222.4973578002785
 30
0.0
  0
VERTEX
  5
46E
330
46C
100
AcDbEntity
  8
Layer 1
 62
     7
370
    25
100
AcDbVertex
100
AcDb2dVertex
 10
625.6834281204889
 20
227.7890244656222
 30
0.0
  0
SEQEND
  5
46F
330
46C
100
AcDbEntity
  8
Layer 1
370
    25
  0
POLYLINE
  5
470
330
3C
100
AcDbEntity
  8
Layer 1
 62
     7
370
    25
100
AcDb2dPolyline
 66
     1
 10
0.0
 20
0.0
 30
0.0
  0
VERTEX
  5
471
330
470
100
AcDbEntity
  8
Layer 1
 62
     7
370
    25
100
AcDbVertex
100
AcDb2dVertex
 10
625.6834281204889
 20
227.7890244656222
 30
0.0
  0
VERTEX
  5
472
330
470
100
AcDbEntity
  8
Layer 1
 62
     7
370
    25
100
AcDbVertex
100
AcDb2dVertex
 10
625.6834281204889
 20
238.3723577963097
 30
0.0
  0
SEQEND
  5
473
330
470
100
AcDbEntity
  8
Layer 1
370
    25
  0
POLYLINE
  5
474
330
3C
100
AcDbEntity
  8
Layer 1
 62
     7
370
    25
100
AcDb2dPolyline
 66
     1
 10
0.0
 20
0.0
 30
0.0
  0
VERTEX
  5
475
330
474
100
AcDbEntity
  8
Layer 1
 62
     7
370
    25
100
AcDbVertex
100
AcDb2dVertex
 10
625.6834281204889
 20
238.3723577963097
 30
0.0
  0
VERTEX
  5
476
330
474
100
AcDbEntity
  8
Layer 1
 62
     7
370
    25
100
AcDbVertex
100
AcDb2dVertex
 10
632.7396726933777
 20
243.6640244616534
 30
0.0
  0
SEQEND
  5
477
330
474
100
AcDbEntity
  8
Layer 1
370
    25
  0
POLYLINE
  5
478
330
3C
100
AcDbEntity
  8
Layer 1
 62
     7
370
    25
100
AcDb2dPolyline
 66
     1
 10
0.0
 20
0.0
 30
0.0
  0
VERTEX
  5
479
330
478
100
AcDbEntity
  8
Layer 1
 62
     7
370
    25
100
AcDbVertex
100
AcDb2dVertex
 10
632.7396726933777
 20
243.6640244616534
 30
0.0
  0
VERTEX
  5
47A
330
478
100
AcDbEntity
  8
Layer 1
 62
     7
370
    25
100
AcDbVertex
100
AcDb2dVertex
 10
639.7952282471692
 20
243.6640244616534
 30
0.0
  0
SEQEND
  5
47B
330
478
100
AcDbEntity
  8
Layer 1
370
    25
  0
POLYLINE
  5
47C
330
3C
100
AcDbEntity
  8
Layer 1
 62
     7
370
    25
100
AcDb2dPolyline
 66
     1
 10
0.0
 20
0.0
 30
0.0
  0
VERTEX
  5
47D
330
47C
100
AcDbEntity
  8
Layer 1
 62
     7
370
    25
100
AcDbVertex
100
AcDb2dVertex
 10
639.7952282471692
 20
243.6640244616534
 30
0.0
  0
VERTEX
  5
47E
330
47C
100
AcDbEntity
  8
Layer 1
 62
     7
370
    25
100
AcDbVertex
100
AcDb2dVertex
 10
646.8507838009609
 20
238.3723577963097
 30
0.0
  0
SEQEND
  5
47F
330
47C
100
AcDbEntity
  8
Layer 1
370
    25
  0
POLYLINE
  5
480
330
3C
100
AcDbEntity
  8
Layer 1
 62
     7
370
    25
100
AcDb2dPolyline
 66
     1
 10
0.0
 20
0.0
 30
0.0
  0
VERTEX
  5
481
330
480
100
AcDbEntity
  8
Layer 1
 62
     7
370
    25
100
AcDbVertex
100
AcDb2dVertex
 10
646.8507838009609
 20
238.3723577963097
 30
0.0
  0
VERTEX
  5
482
330
480
100
AcDbEntity
  8
Layer 1
 62
     7
370
    25
100
AcDbVertex
100
AcDb2dVertex
 10
646.8507838009609
 20
227.7890244656222
 30
0.0
  0
SEQEND
  5
483
330
480
100
AcDbEntity
  8
Layer 1
370
    25
  0
POLYLINE
  5
484
330
3C
100
AcDbEntity
  8
Layer 1
 62
     7
370
    25
100
AcDb2dPolyline
 66
     1
 10
0.0
 20
0.0
 30
0.0
  0
VERTEX
  5
485
330
484
100
AcDbEntity
  8
Layer 1
 62
     7
370
    25
100
AcDbVertex
100
AcDb2dVertex
 10
646.8507838009609
 20
227.7890244656222
 30
0.0
  0
VERTEX
  5
486
330
484
100
AcDbEntity
  8
Layer 1
 62
     7
370
    25
100
AcDbVertex
100
AcDb2dVertex
 10
653.9056503356555
 20
222.4973578002785
 30
0.0
  0
SEQEND
  5
487
330
484
100
AcDbEntity
  8
Layer 1
370
    25
  0
POLYLINE
  5
488
330
3C
100
AcDbEntity
  8
Layer 1
 62
     7
370
    25
100
AcDb2dPolyline
 66
     1
 10
0.0
 20
0.0
 30
0.0
  0
VERTEX
  5
489
330
488
100
AcDbEntity
  8
Layer 1
 62
     7
370
    25
100
AcDbVertex
100
AcDb2dVertex
 10
653.9056503356555
 20
222.4973578002785
 30
0.0
  0
VERTEX
  5
48A
330
488
100
AcDbEntity
  8
Layer 1
 62
     7
370
    25
100
AcDbVertex
100
AcDb2dVertex
 10
668.017450462336
 20
222.4973578002785
 30
0.0
  0
SEQEND
  5
48B
330
488
100
AcDbEntity
  8
Layer 1
370
    25
  0
POLYLINE
  5
48C
330
3C
100
AcDbEntity
  8
Layer 1
 62
     7
370
    25
100
AcDb2dPolyline
 66
     1
 10
0.0
 20
0.0
 30
0.0
  0
VERTEX
  5
48D
330
48C
100
AcDbEntity
  8
Layer 1
 62
     7
370
    25
100
AcDbVertex
100
AcDb2dVertex
 10
668.017450462336
 20
222.4973578002785
 30
0.0
  0
VERTEX
  5
48E
330
48C
100
AcDbEntity
  8
Layer 1
 62
     7
370
    25
100
AcDbVertex
100
AcDb2dVertex
 10
668.017450462336
 20
243.6640244616534
 30
0.0
  0
SEQEND
  5
48F
330
48C
100
AcDbEntity
  8
Layer 1
370
    25
  0
POLYLINE
  5
490
330
3C
100
AcDbEntity
  8
Layer 1
 62
     7
370
    25
100
AcDb2dPolyline
 66
     1
 10
0.0
 20
0.0
 30
0.0
  0
VERTEX
  5
491
330
490
100
AcDbEntity
  8
Layer 1
 62
     7
370
    25
100
AcDbVertex
100
AcDb2dVertex
 10
668.017450462336
 20
254.2466687732439
 30
0.0
  0
VERTEX
  5
492
330
490
100
AcDbEntity
  8
Layer 1
 62
     7
370
    25
100
AcDbVertex
100
AcDb2dVertex
 10
668.017450462336
 20
264.8300021039314
 30
0.0
  0
SEQEND
  5
493
330
490
100
AcDbEntity
  8
Layer 1
370
    25
  0
POLYLINE
  5
494
330
3C
100
AcDbEntity
  8
Layer 1
 62
     7
370
    25
100
AcDb2dPolyline
 66
     1
 10
0.0
 20
0.0
 30
0.0
  0
VERTEX
  5
495
330
494
100
AcDbEntity
  8
Layer 1
 62
     7
370
    25
100
AcDbVertex
100
AcDb2dVertex
 10
668.017450462336
 20
259.5383354385876
 30
0.0
  0
VERTEX
  5
496
330
494
100
AcDbEntity
  8
Layer 1
 62
     7
370
    25
100
AcDbVertex
100
AcDb2dVertex
 10
625.6834281204889
 20
259.5383354385876
 30
0.0
  0
SEQEND
  5
497
330
494
100
AcDbEntity
  8
Layer 1
370
    25
  0
POLYLINE
  5
498
330
3C
100
AcDbEntity
  8
Layer 1
 62
     7
370
    25
100
AcDb2dPolyline
 66
     1
 10
0.0
 20
0.0
 30
0.0
  0
VERTEX
  5
499
330
498
100
AcDbEntity
  8
Layer 1
 62
     7
370
    25
100
AcDbVertex
100
AcDb2dVertex
 10
625.6834281204889
 20
259.5383354385876
 30
0.0
  0
VERTEX
  5
49A
330
498
100
AcDbEntity
  8
Layer 1
 62
     7
370
    25
100
AcDbVertex
100
AcDb2dVertex
 10
632.7396726933777
 20
254.2466687732439
 30
0.0
  0
SEQEND
  5
49B
330
498
100
AcDbEntity
  8
Layer 1
370
    25
  0
POLYLINE
  5
49C
330
3C
100
AcDbEntity
  8
Layer 1
 62
     7
370
    25
100
AcDb2dPolyline
 66
     1
 10
0.0
 20
0.0
 30
0.0
  0
VERTEX
  5
49D
330
49C
100
AcDbEntity
  8
Layer 1
 62
     7
370
    25
100
AcDbVertex
100
AcDb2dVertex
 10
668.017450462336
 20
275.4133354346189
 30
0.0
  0
VERTEX
  5
49E
330
49C
100
AcDbEntity
  8
Layer 1
 62
     7
370
    25
100
AcDbVertex
100
AcDb2dVertex
 10
668.017450462336
 20
285.9973577844034
 30
0.0
  0
SEQEND
  5
49F
330
49C
100
AcDbEntity
  8
Layer 1
370
    25
  0
POLYLINE
  5
4A0
330
3C
100
AcDbEntity
  8
Layer 1
 62
     7
370
    25
100
AcDb2dPolyline
 66
     1
 10
0.0
 20
0.0
 30
0.0
  0
VERTEX
  5
4A1
330
4A0
100
AcDbEntity
  8
Layer 1
 62
     7
370
    25
100
AcDbVertex
100
AcDb2dVertex
 10
668.017450462336
 20
280.7056911190597
 30
0.0
  0
VERTEX
  5
4A2
330
4A0
100
AcDbEntity
  8
Layer 1
 62
     7
370
    25
100
AcDbVertex
100
AcDb2dVertex
 10
625.6834281204889
 20
280.7056911190597
 30
0.0
  0
SEQEND
  5
4A3
330
4A0
100
AcDbEntity
  8
Layer 1
370
    25
  0
POLYLINE
  5
4A4
330
3C
100
AcDbEntity
  8
Layer 1
 62
     7
370
    25
100
AcDb2dPolyline
 66
     1
 10
0.0
 20
0.0
 30
0.0
  0
VERTEX
  5
4A5
330
4A4
100
AcDbEntity
  8
Layer 1
 62
     7
370
    25
100
AcDbVertex
100
AcDb2dVertex
 10
625.6834281204889
 20
280.7056911190597
 30
0.0
  0
VERTEX
  5
4A6
330
4A4
100
AcDbEntity
  8
Layer 1
 62
     7
370
    25
100
AcDbVertex
100
AcDb2dVertex
 10
632.7396726933777
 20
275.4133354346189
 30
0.0
  0
SEQEND
  5
4A7
330
4A4
100
AcDbEntity
  8
Layer 1
370
    25
  0
ENDBLK
  5
3F
330
3C
100
AcDbEntity
  8
0
100
AcDbBlockEnd
  0
BLOCK
  5
4AB
330
4A9
100
AcDbEntity
  8
0
100
AcDbBlockBegin
  2
block 3
 70
     0
 71
     0
 10
0.0
 20
0.0
 30
0.0
  3
block 3
  1

  0
SPLINE
  5
4AD
330
4A9
100
AcDbEntity
  8
Layer 1
370
     0
100
AcDbSpline
210
0.0
220
0.0
230
1.0
 70
    11
 71
     3
 72
    38
 73
    34
 74
     0
 42
0.0000000001
 43
0.0000000001
 40
0.0
 40
0.0
 40
0.0
 40
0.0
 40
1.0
 40
1.0
 40
1.0
 40
2.0
 40
2.0
 40
2.0
 40
3.0
 40
3.0
 40
3.0
 40
4.0
 40
4.0
 40
4.0
 40
5.0
 40
5.0
 40
5.0
 40
6.0
 40
6.0
 40
6.0
 40
7.0
 40
7.0
 40
7.0
 40
8.0
 40
8.0
 40
8.0
 40
9.0
 40
9.0
 40
9.0
 40
10.0
 40
10.0
 40
10.0
 40
11.0
 40
11.0
 40
11.0
 40
11.0
 10
1092.05048258289
 20
82.01807723643994
 30
0.0
 10
1092.05048258289
 20
82.01807723643994
 30
0.0
 10
1092.019476723523
 20
82.1527804699132
 30
0.0
 10
1092.019476723523
 20
82.1527804699132
 30
0.0
 10
1092.412906627939
 20
82.89175345149928
 30
0.0
 10
1093.048871254516
 20
83.23178437589344
 30
0.0
 10
1093.855023598064
 20
82.76945256177292
 30
0.0
 10
1094.561957191637
 20
82.41012910266136
 30
0.0
 10
1095.737423771204
 20
83.198022440138
 30
0.0
 10
1096.477430281436
 20
83.37510034807984
 30
0.0
 10
1099.163915740834
 20
84.38589136345215
 30
0.0
 10
1101.99096109603
 20
85.08283418011818
 30
0.0
 10
1104.709830452989
 20
86.04849444463372
 30
0.0
 10
1104.709830452989
 20
86.04849444463372
 30
0.0
 10
1104.874506017184
 20
86.09500323368458
 30
0.0
 10
1105.069498421649
 20
86.09569225278163
 30
0.0
 10
1105.813639046463
 20
86.10120440555804
 30
0.0
 10
1106.344872770289
 20
85.42424314270644
 30
0.0
 10
1105.695816780868
 20
84.79654674529392
 30
0.0
 10
1105.004730626527
 20
84.12888724025251
 30
0.0
 10
1103.072721078398
 20
83.46053871611403
 30
0.0
 10
1102.180441347719
 20
83.03059079955486
 30
0.0
 10
1102.180441347719
 20
83.03059079955486
 30
0.0
 10
1095.81803900556
 20
80.58698457186715
 30
0.0
 10
1095.268890785211
 20
80.33997122557473
 30
0.0
 10
1095.162092825168
 20
80.29277341742682
 30
0.0
 10
1095.072520342551
 20
80.23627385146871
 30
0.0
 10
1094.98639295542
 20
80.17288409454011
 30
0.0
 10
1094.98639295542
 20
80.17288409454011
 30
0.0
 10
1094.717675507571
 20
79.96927895136184
 30
0.0
 10
1094.717675507571
 20
79.96927895136184
 30
0.0
 10
1093.45883761726
 20
79.06356334828966
 30
0.0
 10
1092.267523598461
 20
81.03932560908045
 30
0.0
 10
1092.05048258289
 20
82.01807723643994
 30
0.0
  0
HATCH
  5
4AE
330
4A9
100
AcDbEntity
  8
Layer 1
 62
   254
100
AcDbHatch
 10
0.0
 20
0.0
 30
0.0
210
0.0
220
0.0
230
1.0
  2
SOLID
 70
     1
 71
     0
 91
        1
 92
        1
 93
        2
 72
     4
 94
        3
 73
     0
 74
     0
 95
       38
 96
       34
 40
0.0
 40
0.0
 40
0.0
 40
0.0
 40
0.3527777776895833
 40
0.3527777776895833
 40
0.3527777776895833
 40
0.7055555553791667
 40
0.7055555553791667
 40
0.7055555553791667
 40
1.05833333306875
 40
1.05833333306875
 40
1.05833333306875
 40
1.411111110758333
 40
1.411111110758333
 40
1.411111110758333
 40
1.763888888447917
 40
1.763888888447917
 40
1.763888888447917
 40
2.1166666661375
 40
2.1166666661375
 40
2.1166666661375
 40
2.469444443827083
 40
2.469444443827083
 40
2.469444443827083
 40
2.822222221516667
 40
2.822222221516667
 40
2.822222221516667
 40
3.17499999920625
 40
3.17499999920625
 40
3.17499999920625
 40
3.527777776895833
 40
3.527777776895833
 40
3.527777776895833
 40
3.880555554585417
 40
3.880555554585417
 40
3.880555554585417
 40
3.880555554585417
 10
1092.05048258289
 20
82.01807723643994
 10
1092.05048258289
 20
82.01807723643994
 10
1092.019476723523
 20
82.1527804699132
 10
1092.019476723523
 20
82.1527804699132
 10
1092.412906627939
 20
82.89175345149928
 10
1093.048871254516
 20
83.23178437589344
 10
1093.855023598064
 20
82.76945256177292
 10
1094.561957191637
 20
82.41012910266136
 10
1095.737423771204
 20
83.198022440138
 10
1096.477430281436
 20
83.37510034807984
 10
1099.163915740834
 20
84.38589136345215
 10
1101.99096109603
 20
85.08283418011818
 10
1104.709830452989
 20
86.04849444463372
 10
1104.709830452989
 20
86.04849444463372
 10
1104.874506017184
 20
86.09500323368458
 10
1105.069498421649
 20
86.09569225278163
 10
1105.813639046463
 20
86.10120440555804
 10
1106.344872770289
 20
85.42424314270644
 10
1105.695816780868
 20
84.79654674529392
 10
1105.004730626527
 20
84.12888724025251
 10
1103.072721078398
 20
83.46053871611403
 10
1102.180441347719
 20
83.03059079955486
 10
1102.180441347719
 20
83.03059079955486
 10
1095.81803900556
 20
80.58698457186715
 10
1095.268890785211
 20
80.33997122557473
 10
1095.162092825168
 20
80.29277341742682
 10
1095.072520342551
 20
80.23627385146871
 10
1094.98639295542
 20
80.17288409454011
 10
1094.98639295542
 20
80.17288409454011
 10
1094.717675507571
 20
79.96927895136184
 10
1094.717675507571
 20
79.96927895136184
 10
1093.45883761726
 20
79.06356334828966
 10
1092.267523598461
 20
81.03932560908045
 10
1092.05048258289
 20
82.01807723643994
 72
     1
 10
1092.05048258289
 20
82.01807723643994
 11
1092.05048258289
 21
82.01807723643994
 97
        0
 75
     2
 76
     1
 98
        0
  0
SPLINE
  5
4AF
330
4A9
100
AcDbEntity
  8
Layer 1
370
     0
100
AcDbSpline
210
0.0
220
0.0
230
1.0
 70
    11
 71
     3
 72
    14
 73
    10
 74
     0
 42
0.0000000001
 43
0.0000000001
 40
0.0
 40
0.0
 40
0.0
 40
0.0
 40
1.0
 40
1.0
 40
1.0
 40
2.0
 40
2.0
 40
2.0
 40
3.0
 40
3.0
 40
3.0
 40
3.0
 10
1065.534960671116
 20
87.53815373245574
 30
0.0
 10
1065.31929769374
 20
84.60568845541108
 30
0.0
 10
1064.115581331193
 20
82.66506616856985
 30
0.0
 10
1062.680354552038
 20
80.24316404243922
 30
0.0
 10
1062.698269048562
 20
83.2848388463663
 30
0.0
 10
1063.111680506792
 20
86.00646427971367
 30
0.0
 10
1064.980300297991
 20
87.97947046411625
 30
0.0
 10
1065.220078943765
 20
88.30641002566645
 30
0.0
 10
1065.595594351657
 20
88.24956595015983
 30
0.0
 10
1065.534960671116
 20
87.53815373245574
 30
0.0
  0
SPLINE
  5
4B0
330
4A9
100
AcDbEntity
  8
Layer 1
370
     0
100
AcDbSpline
210
0.0
220
0.0
230
1.0
 70
    11
 71
     3
 72
    14
 73
    10
 74
     0
 42
0.0000000001
 43
0.0000000001
 40
0.0
 40
0.0
 40
0.0
 40
0.0
 40
1.0
 40
1.0
 40
1.0
 40
2.0
 40
2.0
 40
2.0
 40
3.0
 40
3.0
 40
3.0
 40
3.0
 10
1094.767284882558
 20
75.28463811051913
 30
0.0
 10
1094.7576386152
 20
75.03831378332376
 30
0.0
 10
1094.170594344513
 20
74.38960230345121
 30
0.0
 10
1093.114328068735
 20
74.20666773318445
 30
0.0
 10
1092.921402721561
 20
75.44828014606848
 30
0.0
 10
1093.520849335995
 20
76.17347274571358
 30
0.0
 10
1094.107893606682
 20
76.17347274571358
 30
0.0
 10
1094.593652070102
 20
76.17347274571358
 30
0.0
 10
1094.794156627343
 20
75.99122719454387
 30
0.0
 10
1094.767284882558
 20
75.28463811051913
 30
0.0
  0
SPLINE
  5
4B1
330
4A9
100
AcDbEntity
  8
Layer 1
370
     0
100
AcDbSpline
210
0.0
220
0.0
230
1.0
 70
    11
 71
     3
 72
   200
 73
   196
 74
     0
 42
0.0000000001
 43
0.0000000001
 40
0.0
 40
0.0
 40
0.0
 40
0.0
 40
1.0
 40
1.0
 40
1.0
 40
2.0
 40
2.0
 40
2.0
 40
3.0
 40
3.0
 40
3.0
 40
4.0
 40
4.0
 40
4.0
 40
5.0
 40
5.0
 40
5.0
 40
6.0
 40
6.0
 40
6.0
 40
7.0
 40
7.0
 40
7.0
 40
8.0
 40
8.0
 40
8.0
 40
9.0
 40
9.0
 40
9.0
 40
10.0
 40
10.0
 40
10.0
 40
11.0
 40
11.0
 40
11.0
 40
12.0
 40
12.0
 40
12.0
 40
13.0
 40
13.0
 40
13.0
 40
14.0
 40
14.0
 40
14.0
 40
15.0
 40
15.0
 40
15.0
 40
16.0
 40
16.0
 40
16.0
 40
17.0
 40
17.0
 40
17.0
 40
18.0
 40
18.0
 40
18.0
 40
19.0
 40
19.0
 40
19.0
 40
20.0
 40
20.0
 40
20.0
 40
21.0
 40
21.0
 40
21.0
 40
22.0
 40
22.0
 40
22.0
 40
23.0
 40
23.0
 40
23.0
 40
24.0
 40
24.0
 40
24.0
 40
25.0
 40
25.0
 40
25.0
 40
26.0
 40
26.0
 40
26.0
 40
27.0
 40
27.0
 40
27.0
 40
28.0
 40
28.0
 40
28.0
 40
29.0
 40
29.0
 40
29.0
 40
30.0
 40
30.0
 40
30.0
 40
31.0
 40
31.0
 40
31.0
 40
32.0
 40
32.0
 40
32.0
 40
33.0
 40
33.0
 40
33.0
 40
34.0
 40
34.0
 40
34.0
 40
35.0
 40
35.0
 40
35.0
 40
36.0
 40
36.0
 40
36.0
 40
37.0
 40
37.0
 40
37.0
 40
38.0
 40
38.0
 40
38.0
 40
39.0
 40
39.0
 40
39.0
 40
40.0
 40
40.0
 40
40.0
 40
41.0
 40
41.0
 40
41.0
 40
42.0
 40
42.0
 40
42.0
 40
43.0
 40
43.0
 40
43.0
 40
44.0
 40
44.0
 40
44.0
 40
45.0
 40
45.0
 40
45.0
 40
46.0
 40
46.0
 40
46.0
 40
47.0
 40
47.0
 40
47.0
 40
48.0
 40
48.0
 40
48.0
 40
49.0
 40
49.0
 40
49.0
 40
50.0
 40
50.0
 40
50.0
 40
51.0
 40
51.0
 40
51.0
 40
52.0
 40
52.0
 40
52.0
 40
53.0
 40
53.0
 40
53.0
 40
54.0
 40
54.0
 40
54.0
 40
55.0
 40
55.0
 40
55.0
 40
56.0
 40
56.0
 40
56.0
 40
57.0
 40
57.0
 40
57.0
 40
58.0
 40
58.0
 40
58.0
 40
59.0
 40
59.0
 40
59.0
 40
60.0
 40
60.0
 40
60.0
 40
61.0
 40
61.0
 40
61.0
 40
62.0
 40
62.0
 40
62.0
 40
63.0
 40
63.0
 40
63.0
 40
64.0
 40
64.0
 40
64.0
 40
65.0
 40
65.0
 40
65.0
 40
65.0
 10
1102.564224984776
 20
72.69978296793617
 30
0.0
 10
1102.564224984776
 20
72.69978296793617
 30
0.0
 10
1102.792979324996
 20
71.7448024994249
 30
0.0
 10
1102.792979324996
 20
71.7448024994249
 30
0.0
 10
1102.919069819756
 20
71.24939776864599
 30
0.0
 10
1103.064452849234
 20
70.7891330118166
 30
0.0
 10
1103.307676590493
 20
70.33610295550625
 30
0.0
 10
1104.851079367884
 20
68.27076821209897
 30
0.0
 10
1108.790890564816
 20
68.50744627193563
 30
0.0
 10
1110.809716519173
 20
69.13342012160554
 30
0.0
 10
1111.927994513685
 20
69.48103025606724
 30
0.0
 10
1113.002175285986
 20
70.0553276734584
 30
0.0
 10
1114.009521205873
 20
70.65408526879482
 30
0.0
 10
1116.577495380578
 20
68.96598848102239
 30
0.0
 10
1119.820708270392
 20
68.44371200545852
 30
0.0
 10
1123.07012233208
 20
68.4309651521631
 30
0.0
 10
1126.391194379861
 20
68.4185628084162
 30
0.0
 10
1129.781857356443
 20
68.9411837935286
 30
0.0
 10
1132.568939604011
 20
69.34701604169102
 30
0.0
 10
1135.533099759519
 20
69.53718531247682
 30
0.0
 10
1137.896435262401
 20
70.93486055084267
 30
0.0
 10
1141.014935695649
 20
70.26410045986454
 30
0.0
 10
1141.68741833437
 20
70.48872068550283
 30
0.0
 10
1142.217274020001
 20
70.8318521958337
 30
0.0
 10
1142.167664645014
 20
71.66797687010384
 30
0.0
 10
1141.865874280506
 20
72.40798338033551
 30
0.0
 10
1141.447639688596
 20
72.9250922126715
 30
0.0
 10
1140.576030530828
 20
72.99433863192503
 30
0.0
 10
1139.105663777724
 20
72.36181910083316
 30
0.0
 10
1137.44581677293
 20
72.54923229523075
 30
0.0
 10
1135.910682224703
 20
72.17233884914442
 30
0.0
 10
1132.008767078109
 20
71.26283364103845
 30
0.0
 10
1127.854670941995
 20
70.90592174876657
 30
0.0
 10
1123.439436568098
 20
70.66683212209024
 30
0.0
 10
1120.701963695519
 20
70.68991426184141
 30
0.0
 10
1117.241709790134
 20
70.73228893630998
 30
0.0
 10
1115.333126891306
 20
73.0394693827818
 30
0.0
 10
1115.122287047608
 20
73.73468965170522
 30
0.0
 10
1115.692794859966
 20
74.65763073220366
 30
0.0
 10
1115.465418557939
 20
75.64602862692183
 30
0.0
 10
1115.109195684764
 20
76.33573674306885
 30
0.0
 10
1114.525596509563
 20
76.79221189486445
 30
0.0
 10
1113.677414001095
 20
76.56828068832321
 30
0.0
 10
1112.514349765274
 20
75.72802189947078
 30
0.0
 10
1112.530197204506
 20
74.34137096665772
 30
0.0
 10
1112.634239088161
 20
73.0808105286048
 30
0.0
 10
1110.95992268233
 20
70.91694605431938
 30
0.0
 10
1107.106238872529
 20
70.01364201808687
 30
0.0
 10
1105.456038135094
 20
71.69140351940354
 30
0.0
 10
1105.369910747963
 20
71.98802624068355
 30
0.0
 10
1105.204546164671
 20
72.57024737769078
 30
0.0
 10
1105.372666824351
 20
72.99847274650733
 30
0.0
 10
1105.387825244487
 20
73.05014917878607
 30
0.0
 10
1105.403672683718
 20
73.10630423519565
 30
0.0
 10
1105.411251893786
 20
73.17003850167278
 30
0.0
 10
1105.497379280917
 20
73.82012801973941
 30
0.0
 10
1105.283783360832
 20
74.30726452135374
 30
0.0
 10
1104.689159880078
 20
74.51844887459956
 30
0.0
 10
1103.558479541819
 20
74.93358288057216
 30
0.0
 10
1103.625314394233
 20
75.44104544554946
 30
0.0
 10
1102.824674203461
 20
76.1476345295742
 30
0.0
 10
1102.001296382486
 20
76.9059000458777
 30
0.0
 10
1101.042181799392
 20
76.5407199244412
 30
0.0
 10
1100.470295948841
 20
75.78107636994362
 30
0.0
 10
1100.329736053043
 20
73.74709199545212
 30
0.0
 10
1098.893131235694
 20
72.08001029013973
 30
0.0
 10
1097.313210446158
 20
70.9848144353788
 30
0.0
 10
1096.30379746898
 20
70.63582626272299
 30
0.0
 10
1095.038758406796
 20
70.75123696147887
 30
0.0
 10
1094.212624509433
 20
71.31175399692901
 30
0.0
 10
1093.938394908807
 20
71.50123424861775
 30
0.0
 10
1093.84193223522
 20
71.71069605412094
 30
0.0
 10
1093.836420082444
 20
71.85849065043816
 30
0.0
 10
1095.153824596003
 20
72.22918292465104
 30
0.0
 10
1096.334803328347
 20
73.12490775081599
 30
0.0
 10
1097.009353024359
 20
74.35549585814724
 30
0.0
 10
1097.80792615784
 20
76.49834524997264
 30
0.0
 10
1096.259011227671
 20
78.78554414263
 30
0.0
 10
1093.878450247364
 20
78.45343693785192
 30
0.0
 10
1091.683235404163
 20
78.14613442056763
 30
0.0
 10
1090.600786402697
 20
76.59653047130226
 30
0.0
 10
1090.704828286352
 20
73.92623696068512
 30
0.0
 10
1089.49766682832
 20
73.97653535476975
 30
0.0
 10
1088.415906845952
 20
74.37823348834989
 30
0.0
 10
1087.294183755954
 20
74.82954099691761
 30
0.0
 10
1086.332313096472
 20
75.2181477676538
 30
0.0
 10
1086.16005832221
 20
76.12110729433778
 30
0.0
 10
1084.759282497907
 20
75.85962454700731
 30
0.0
 10
1083.657540961725
 20
74.69449325389583
 30
0.0
 10
1084.429931369518
 20
73.92899303707331
 30
0.0
 10
1085.152023383226
 20
73.00880803296307
 30
0.0
 10
1085.875493435128
 20
72.09103459569252
 30
0.0
 10
1085.84242051847
 20
70.71437443978668
 30
0.0
 10
1084.696581760076
 20
70.06394041217152
 30
0.0
 10
1083.053960232709
 20
69.67464462233829
 30
0.0
 10
1081.680056153191
 20
71.11262747788157
 30
0.0
 10
1080.680978462469
 20
72.17854002101787
 30
0.0
 10
1080.694069825313
 20
72.81416013804646
 30
0.0
 10
1080.712673340933
 20
74.04784883131443
 30
0.0
 10
1080.549375814932
 20
74.59148489888686
 30
0.0
 10
1080.224158801125
 20
75.68254663906548
 30
0.0
 10
1079.519292264843
 20
76.61926810150491
 30
0.0
 10
1078.225314400583
 20
76.18690861810606
 30
0.0
 10
1077.417094999743
 20
75.1120388267081
 30
0.0
 10
1077.726464574318
 20
73.82460664387024
 30
0.0
 10
1078.169503853722
 20
72.72803275091522
 30
0.0
 10
1077.80776882777
 20
71.60493162272377
 30
0.0
 10
1077.27309000846
 20
70.50973576796285
 30
0.0
 10
1076.22440294275
 20
69.95300833754648
 30
0.0
 10
1075.005528160068
 20
69.66258678813992
 30
0.0
 10
1072.883349341154
 20
69.95404186619204
 30
0.0
 10
1072.005539011513
 20
72.12996417467585
 30
0.0
 10
1072.055837405597
 20
72.4190076858883
 30
0.0
 10
1072.189507110425
 20
73.24135197821744
 30
0.0
 10
1072.190885148619
 20
74.07954370977873
 30
0.0
 10
1072.192263186813
 20
74.59699705166325
 30
0.0
 10
1072.14403185002
 20
75.15682506801635
 30
0.0
 10
1071.977289228533
 20
75.61330021981196
 30
0.0
 10
1071.43158610367
 20
77.09641382621201
 30
0.0
 10
1069.207432458393
 20
77.0809108965284
 30
0.0
 10
1069.208810496587
 20
74.5301621992494
 30
0.0
 10
1069.208810496587
 20
73.92003578881166
 30
0.0
 10
1069.299761017397
 20
73.30818683063129
 30
0.0
 10
1069.442387970487
 20
72.71700844536242
 30
0.0
 10
1068.557687449874
 20
70.89972057689313
 30
0.0
 10
1066.736609976371
 20
70.53488496500518
 30
0.0
 10
1065.457790532247
 20
70.77948674445791
 30
0.0
 10
1063.580213492786
 20
71.73756779890589
 30
0.0
 10
1062.973876687382
 20
73.78016491211052
 30
0.0
 10
1062.708604335017
 20
75.88305119630702
 30
0.0
 10
1064.052191574265
 20
77.73513452917733
 30
0.0
 10
1065.184938969815
 20
79.35777450273001
 30
0.0
 10
1066.356960453897
 20
81.61190047872897
 30
0.0
 10
1067.701925731338
 20
84.11062823418068
 30
0.0
 10
1068.222824168708
 20
85.13244355510578
 30
0.0
 10
1068.32755507146
 20
88.21270342846766
 30
0.0
 10
1068.006472172234
 20
92.00782061501889
 30
0.0
 10
1063.338367789721
 20
90.92399357535929
 30
0.0
 10
1062.342735194484
 20
88.91274683107042
 30
0.0
 10
1059.964930290564
 20
85.18756508286978
 30
0.0
 10
1059.55496392782
 20
80.18115232370472
 30
0.0
 10
1059.973887538826
 20
75.94402938639594
 30
0.0
 10
1059.507421610123
 20
75.06759709494838
 30
0.0
 10
1058.803933112035
 20
74.39442543713056
 30
0.0
 10
1058.110779900403
 20
73.7012722254983
 30
0.0
 10
1057.471370178341
 20
73.15074596695537
 30
0.0
 10
1056.947715664583
 20
73.00191784199258
 30
0.0
 10
1056.574267313981
 20
72.14753416165063
 30
0.0
 10
1056.760302470185
 20
71.80268010357712
 30
0.0
 10
1056.814734978852
 20
71.74790308536164
 30
0.0
 10
1057.256396220061
 20
71.48159720435183
 30
0.0
 10
1058.616519917638
 20
71.06439614108807
 30
0.0
 10
1059.425428337574
 20
71.89328611483919
 30
0.0
 10
1060.292214361663
 20
72.72424314588145
 30
0.0
 10
1060.292214361663
 20
72.72424314588145
 30
0.0
 10
1060.669796826847
 20
73.07564288537692
 30
0.0
 10
1060.669796826847
 20
73.07564288537692
 30
0.0
 10
1061.566210672109
 20
71.19909937456134
 30
0.0
 10
1062.935291617947
 20
69.04557018673167
 30
0.0
 10
1065.141530766701
 20
68.43199868080868
 30
0.0
 10
1066.420350210826
 20
68.2173692320776
 30
0.0
 10
1067.969265140994
 20
68.2256374612422
 30
0.0
 10
1069.127506243135
 20
68.94910751314467
 30
0.0
 10
1069.127506243135
 20
68.94910751314467
 30
0.0
 10
1070.833517527431
 20
70.04464787745412
 30
0.0
 10
1070.833517527431
 20
70.04464787745412
 30
0.0
 10
1072.074440921218
 20
68.58117131531999
 30
0.0
 10
1073.68536757012
 20
67.4050157166557
 30
0.0
 10
1075.811680503617
 20
67.60517576434872
 30
0.0
 10
1077.213834366113
 20
67.6658094448891
 30
0.0
 10
1078.323155112364
 20
68.66454262606304
 30
0.0
 10
1079.218879938529
 20
69.63468151470938
 30
0.0
 10
1079.218879938529
 20
69.63468151470938
 30
0.0
 10
1079.733577204025
 20
70.20966795119759
 30
0.0
 10
1079.733577204025
 20
70.20966795119759
 30
0.0
 10
1081.113682455416
 20
68.75824922326183
 30
0.0
 10
1082.721164008834
 20
67.40536022620422
 30
0.0
 10
1085.126529676635
 20
67.85081107244702
 30
0.0
 10
1086.601030544322
 20
68.04132485278134
 30
0.0
 10
1087.385823295862
 20
68.85540091594588
 30
0.0
 10
1087.961843260996
 20
70.14558917517193
 30
0.0
 10
1088.233316785233
 20
70.77707517761823
 30
0.0
 10
1088.15476860817
 20
71.46574976511968
 30
0.0
 10
1088.086555717562
 20
72.12479653144797
 30
0.0
 10
1089.08907850377
 20
71.86641437005423
 30
0.0
 10
1090.128808321218
 20
71.65247394042022
 30
0.0
 10
1091.164404024084
 20
71.61319985188837
 30
0.0
 10
1091.518559839968
 20
70.69749347190897
 30
0.0
 10
1092.144878199186
 20
69.63399249561233
 30
0.0
 10
1093.068163789233
 20
69.20852320318399
 30
0.0
 10
1095.067008189775
 20
68.2876491799767
 30
0.0
 10
1095.180007321691
 20
68.4392333813277
 30
0.0
 10
1097.059651418444
 20
68.53879664085142
 30
0.0
 10
1099.458815914371
 20
68.98424748709422
 30
0.0
 10
1101.221326764625
 20
70.85803492152161
 30
0.0
 10
1102.564224984776
 20
72.69978296793617
 30
0.0
  0
SPLINE
  5
4B2
330
4A9
100
AcDbEntity
  8
Layer 1
370
     0
100
AcDbSpline
210
0.0
220
0.0
230
1.0
 70
    11
 71
     3
 72
    53
 73
    49
 74
     0
 42
0.0000000001
 43
0.0000000001
 40
0.0
 40
0.0
 40
0.0
 40
0.0
 40
1.0
 40
1.0
 40
1.0
 40
2.0
 40
2.0
 40
2.0
 40
3.0
 40
3.0
 40
3.0
 40
4.0
 40
4.0
 40
4.0
 40
5.0
 40
5.0
 40
5.0
 40
6.0
 40
6.0
 40
6.0
 40
7.0
 40
7.0
 40
7.0
 40
8.0
 40
8.0
 40
8.0
 40
9.0
 40
9.0
 40
9.0
 40
10.0
 40
10.0
 40
10.0
 40
11.0
 40
11.0
 40
11.0
 40
12.0
 40
12.0
 40
12.0
 40
13.0
 40
13.0
 40
13.0
 40
14.0
 40
14.0
 40
14.0
 40
15.0
 40
15.0
 40
15.0
 40
16.0
 40
16.0
 40
16.0
 40
16.0
 10
1043.992089582752
 20
86.06537541251144
 30
0.0
 10
1043.992089582752
 20
86.06537541251144
 30
0.0
 10
1043.482904470032
 20
86.53631996534509
 30
0.0
 10
1043.482904470032
 20
86.53631996534509
 30
0.0
 10
1043.482904470032
 20
86.53631996534509
 30
0.0
 10
1043.973486067132
 20
86.77334253473028
 30
0.0
 10
1043.973486067132
 20
86.77334253473028
 30
0.0
 10
1044.744498436731
 20
87.02070039057122
 30
0.0
 10
1045.580967620549
 20
87.08236759975719
 30
0.0
 10
1045.973019486771
 20
86.18733179268928
 30
0.0
 10
1046.068793141261
 20
85.40219453160084
 30
0.0
 10
1045.741509070162
 20
84.92814939283046
 30
0.0
 10
1045.185470658843
 20
84.43894583392499
 30
0.0
 10
1043.988644487267
 20
84.33008081659109
 30
0.0
 10
1043.186626258301
 20
83.22730575176263
 30
0.0
 10
1042.446619748069
 20
82.40082734485118
 30
0.0
 10
1041.592925086824
 20
80.38854707191676
 30
0.0
 10
1042.295724565815
 20
77.97077906036841
 30
0.0
 10
1042.713959157724
 20
75.94402938639594
 30
0.0
 10
1042.713959157724
 20
75.94402938639594
 30
0.0
 10
1042.96958524273
 20
75.6952934923609
 30
0.0
 10
1042.96958524273
 20
75.6952934923609
 30
0.0
 10
1043.430539018656
 20
75.2388183405653
 30
0.0
 10
1043.805365407452
 20
74.75305987714508
 30
0.0
 10
1043.772292490793
 20
74.05611706047902
 30
0.0
 10
1043.333387325972
 20
72.87617185678096
 30
0.0
 10
1040.991411415099
 20
72.30221894893833
 30
0.0
 10
1040.741986501967
 20
74.18599716027295
 30
0.0
 10
1040.318239757282
 20
74.93358288057216
 30
0.0
 10
1040.14805204031
 20
75.47618541949902
 30
0.0
 10
1040.039187022976
 20
76.02981226397866
 30
0.0
 10
1040.039187022976
 20
76.02981226397866
 30
0.0
 10
1039.962705903204
 20
76.46665037150834
 30
0.0
 10
1039.962705903204
 20
76.46665037150834
 30
0.0
 10
1039.81870091192
 20
75.3752441217812
 30
0.0
 10
1039.993711762571
 20
74.10434839727253
 30
0.0
 10
1040.176301823289
 20
73.03189017271426
 30
0.0
 10
1040.552506250279
 20
71.61182181369426
 30
0.0
 10
1041.532291406284
 20
70.52730575493761
 30
0.0
 10
1042.936512326072
 20
69.95714245212878
 30
0.0
 10
1046.154920528392
 20
69.19405380214593
 30
0.0
 10
1048.809711109325
 20
71.39271374083238
 30
0.0
 10
1050.645947002964
 20
73.7715521733974
 30
0.0
 10
1053.537760153282
 20
77.90118813156637
 30
0.0
 10
1056.105734327987
 20
83.07882213634835
 30
0.0
 10
1053.769270569891
 20
88.08144529047965
 30
0.0
 10
1050.98081028413
 20
91.57063799794068
 30
0.0
 10
1045.51068767265
 20
89.95006508167916
 30
0.0
 10
1043.992089582752
 20
86.06537541251144
 30
0.0
  0
SPLINE
  5
4B3
330
4A9
100
AcDbEntity
  8
Layer 1
370
     0
100
AcDbSpline
210
0.0
220
0.0
230
1.0
 70
    11
 71
     3
 72
    23
 73
    19
 74
     0
 42
0.0000000001
 43
0.0000000001
 40
0.0
 40
0.0
 40
0.0
 40
0.0
 40
1.0
 40
1.0
 40
1.0
 40
2.0
 40
2.0
 40
2.0
 40
3.0
 40
3.0
 40
3.0
 40
4.0
 40
4.0
 40
4.0
 40
5.0
 40
5.0
 40
5.0
 40
6.0
 40
6.0
 40
6.0
 40
6.0
 10
1052.651681594476
 20
72.06485187000462
 30
0.0
 10
1050.386875822473
 20
68.9894151303221
 30
0.0
 10
1046.69717855777
 20
66.93992782614697
 30
0.0
 10
1042.748410112577
 20
67.49596623746629
 30
0.0
 10
1039.964772960495
 20
68.23735078589205
 30
0.0
 10
1038.162988021709
 20
70.94175074181318
 30
0.0
 10
1037.70272326488
 20
73.60136445642605
 30
0.0
 10
1037.141861719881
 20
77.07815482014018
 30
0.0
 10
1038.084439844646
 20
80.24454208063331
 30
0.0
 10
1039.920675738284
 20
82.86178112077761
 30
0.0
 10
1040.471201996827
 20
86.66344398875081
 30
0.0
 10
1042.633343923369
 20
90.31421167447006
 30
0.0
 10
1046.406412498815
 20
91.99231768533525
 30
0.0
 10
1048.758723696144
 20
92.850490970711
 30
0.0
 10
1054.025585673994
 20
93.2284179454429
 30
0.0
 10
1055.810145135353
 20
89.37094453060865
 30
0.0
 10
1059.049912929682
 20
83.39611543053987
 30
0.0
 10
1055.801187887091
 20
76.83596460752712
 30
0.0
 10
1052.651681594476
 20
72.06485187000462
 30
0.0
  0
SPLINE
  5
4B4
330
4A9
100
AcDbEntity
  8
Layer 1
370
     0
100
AcDbSpline
210
0.0
220
0.0
230
1.0
 70
    11
 71
     3
 72
    17
 73
    13
 74
     0
 42
0.0000000001
 43
0.0000000001
 40
0.0
 40
0.0
 40
0.0
 40
0.0
 40
1.0
 40
1.0
 40
1.0
 40
2.0
 40
2.0
 40
2.0
 40
3.0
 40
3.0
 40
3.0
 40
4.0
 40
4.0
 40
4.0
 40
4.0
 10
1115.234597160427
 20
79.10490449411266
 30
0.0
 10
1115.387559399973
 20
79.5699923846214
 30
0.0
 10
1115.337950024985
 20
80.1890760433208
 30
0.0
 10
1115.059586309777
 20
80.61730141213735
 30
0.0
 10
1114.457383618955
 20
81.3752224188923
 30
0.0
 10
1113.297075459523
 20
81.91369084323686
 30
0.0
 10
1112.577050503106
 20
80.92046981483934
 30
0.0
 10
1112.214626458057
 20
80.03404674648455
 30
0.0
 10
1112.486099982295
 20
79.15175779271206
 30
0.0
 10
1113.197856709548
 20
78.54335393001695
 30
0.0
 10
1113.954399678109
 20
78.3621419074928
 30
0.0
 10
1114.816362568518
 20
78.18092988496866
 30
0.0
 10
1115.234597160427
 20
79.10490449411266
 30
0.0
  0
SPLINE
  5
4B5
330
4A9
100
AcDbEntity
  8
Layer 1
370
     0
100
AcDbSpline
210
0.0
220
0.0
230
1.0
 70
    11
 71
     3
 72
    17
 73
    13
 74
     0
 42
0.0000000001
 43
0.0000000001
 40
0.0
 40
0.0
 40
0.0
 40
0.0
 40
1.0
 40
1.0
 40
1.0
 40
2.0
 40
2.0
 40
2.0
 40
3.0
 40
3.0
 40
3.0
 40
4.0
 40
4.0
 40
4.0
 40
4.0
 10
1071.796077206009
 20
80.52462834358413
 30
0.0
 10
1071.406781416176
 20
79.96652287497365
 30
0.0
 10
1070.445599775791
 20
79.96514483677954
 30
0.0
 10
1069.948817006818
 20
80.16806096086077
 30
0.0
 10
1069.230170088595
 20
80.46123858665553
 30
0.0
 10
1068.547352163419
 20
81.40932886419628
 30
0.0
 10
1069.073762753565
 20
82.32606877282126
 30
0.0
 10
1069.661496043349
 20
83.34926213194046
 30
0.0
 10
1070.881059845127
 20
83.06814234034408
 30
0.0
 10
1071.510823299831
 20
82.55516762259037
 30
0.0
 10
1071.90563124244
 20
82.2340847233651
 30
0.0
 10
1072.321798777059
 20
81.27634817846564
 30
0.0
 10
1071.796077206009
 20
80.52462834358413
 30
0.0
  0
HATCH
  5
4B6
330
4A9
100
AcDbEntity
  8
Layer 1
 62
   152
100
AcDbHatch
 10
0.0
 20
0.0
 30
0.0
210
0.0
220
0.0
230
1.0
  2
SOLID
 70
     1
 71
     0
 91
        7
 92
        1
 93
        2
 72
     4
 94
        3
 73
     0
 74
     0
 95
       14
 96
       10
 40
0.0
 40
0.0
 40
0.0
 40
0.0
 40
0.3527777776895833
 40
0.3527777776895833
 40
0.3527777776895833
 40
0.7055555553791667
 40
0.7055555553791667
 40
0.7055555553791667
 40
1.05833333306875
 40
1.05833333306875
 40
1.05833333306875
 40
1.05833333306875
 10
1065.534960671116
 20
87.53815373245574
 10
1065.31929769374
 20
84.60568845541108
 10
1064.115581331193
 20
82.66506616856985
 10
1062.680354552038
 20
80.24316404243922
 10
1062.698269048562
 20
83.2848388463663
 10
1063.111680506792
 20
86.00646427971367
 10
1064.980300297991
 20
87.97947046411625
 10
1065.220078943765
 20
88.30641002566645
 10
1065.595594351657
 20
88.24956595015983
 10
1065.534960671116
 20
87.53815373245574
 72
     1
 10
1065.534960671116
 20
87.53815373245574
 11
1065.534960671116
 21
87.53815373245574
 97
        0
 92
        1
 93
        2
 72
     4
 94
        3
 73
     0
 74
     0
 95
       14
 96
       10
 40
0.0
 40
0.0
 40
0.0
 40
0.0
 40
0.3527777776895833
 40
0.3527777776895833
 40
0.3527777776895833
 40
0.7055555553791667
 40
0.7055555553791667
 40
0.7055555553791667
 40
1.05833333306875
 40
1.05833333306875
 40
1.05833333306875
 40
1.05833333306875
 10
1094.767284882558
 20
75.28463811051913
 10
1094.7576386152
 20
75.03831378332376
 10
1094.170594344513
 20
74.38960230345121
 10
1093.114328068735
 20
74.20666773318445
 10
1092.921402721561
 20
75.44828014606848
 10
1093.520849335995
 20
76.17347274571358
 10
1094.107893606682
 20
76.17347274571358
 10
1094.593652070102
 20
76.17347274571358
 10
1094.794156627343
 20
75.99122719454387
 10
1094.767284882558
 20
75.28463811051913
 72
     1
 10
1094.767284882558
 20
75.28463811051913
 11
1094.767284882558
 21
75.28463811051913
 97
        0
 92
        1
 93
        2
 72
     4
 94
        3
 73
     0
 74
     0
 95
      200
 96
      196
 40
0.0
 40
0.0
 40
0.0
 40
0.0
 40
0.3527777776895833
 40
0.3527777776895833
 40
0.3527777776895833
 40
0.7055555553791667
 40
0.7055555553791667
 40
0.7055555553791667
 40
1.05833333306875
 40
1.05833333306875
 40
1.05833333306875
 40
1.411111110758333
 40
1.411111110758333
 40
1.411111110758333
 40
1.763888888447917
 40
1.763888888447917
 40
1.763888888447917
 40
2.1166666661375
 40
2.1166666661375
 40
2.1166666661375
 40
2.469444443827083
 40
2.469444443827083
 40
2.469444443827083
 40
2.822222221516667
 40
2.822222221516667
 40
2.822222221516667
 40
3.17499999920625
 40
3.17499999920625
 40
3.17499999920625
 40
3.527777776895833
 40
3.527777776895833
 40
3.527777776895833
 40
3.880555554585417
 40
3.880555554585417
 40
3.880555554585417
 40
4.233333332275
 40
4.233333332275
 40
4.233333332275
 40
4.586111109964584
 40
4.586111109964584
 40
4.586111109964584
 40
4.938888887654167
 40
4.938888887654167
 40
4.938888887654167
 40
5.29166666534375
 40
5.29166666534375
 40
5.29166666534375
 40
5.644444443033334
 40
5.644444443033334
 40
5.644444443033334
 40
5.997222220722917
 40
5.997222220722917
 40
5.997222220722917
 40
6.349999998412501
 40
6.349999998412501
 40
6.349999998412501
 40
6.702777776102083
 40
6.702777776102083
 40
6.702777776102083
 40
7.055555553791667
 40
7.055555553791667
 40
7.055555553791667
 40
7.40833333148125
 40
7.40833333148125
 40
7.40833333148125
 40
7.761111109170834
 40
7.761111109170834
 40
7.761111109170834
 40
8.113888886860417
 40
8.113888886860417
 40
8.113888886860417
 40
8.46666666455
 40
8.46666666455
 40
8.46666666455
 40
8.819444442239584
 40
8.819444442239584
 40
8.819444442239584
 40
9.172222219929168
 40
9.172222219929168
 40
9.172222219929168
 40
9.52499999761875
 40
9.52499999761875
 40
9.52499999761875
 40
9.877777775308333
 40
9.877777775308333
 40
9.877777775308333
 40
10.23055555299792
 40
10.23055555299792
 40
10.23055555299792
 40
10.5833333306875
 40
10.5833333306875
 40
10.5833333306875
 40
10.93611110837708
 40
10.93611110837708
 40
10.93611110837708
 40
11.28888888606667
 40
11.28888888606667
 40
11.28888888606667
 40
11.64166666375625
 40
11.64166666375625
 40
11.64166666375625
 40
11.99444444144583
 40
11.99444444144583
 40
11.99444444144583
 40
12.34722221913542
 40
12.34722221913542
 40
12.34722221913542
 40
12.699999996825
 40
12.699999996825
 40
12.699999996825
 40
13.05277777451458
 40
13.05277777451458
 40
13.05277777451458
 40
13.40555555220417
 40
13.40555555220417
 40
13.40555555220417
 40
13.75833332989375
 40
13.75833332989375
 40
13.75833332989375
 40
14.11111110758333
 40
14.11111110758333
 40
14.11111110758333
 40
14.46388888527292
 40
14.46388888527292
 40
14.46388888527292
 40
14.8166666629625
 40
14.8166666629625
 40
14.8166666629625
 40
15.16944444065208
 40
15.16944444065208
 40
15.16944444065208
 40
15.52222221834167
 40
15.52222221834167
 40
15.52222221834167
 40
15.87499999603125
 40
15.87499999603125
 40
15.87499999603125
 40
16.22777777372083
 40
16.22777777372083
 40
16.22777777372083
 40
16.58055555141042
 40
16.58055555141042
 40
16.58055555141042
 40
16.9333333291
 40
16.9333333291
 40
16.9333333291
 40
17.28611110678958
 40
17.28611110678958
 40
17.28611110678958
 40
17.63888888447917
 40
17.63888888447917
 40
17.63888888447917
 40
17.99166666216875
 40
17.99166666216875
 40
17.99166666216875
 40
18.34444443985834
 40
18.34444443985834
 40
18.34444443985834
 40
18.69722221754792
 40
18.69722221754792
 40
18.69722221754792
 40
19.0499999952375
 40
19.0499999952375
 40
19.0499999952375
 40
19.40277777292708
 40
19.40277777292708
 40
19.40277777292708
 40
19.75555555061667
 40
19.75555555061667
 40
19.75555555061667
 40
20.10833332830625
 40
20.10833332830625
 40
20.10833332830625
 40
20.46111110599583
 40
20.46111110599583
 40
20.46111110599583
 40
20.81388888368542
 40
20.81388888368542
 40
20.81388888368542
 40
21.166666661375
 40
21.166666661375
 40
21.166666661375
 40
21.51944443906459
 40
21.51944443906459
 40
21.51944443906459
 40
21.87222221675417
 40
21.87222221675417
 40
21.87222221675417
 40
22.22499999444375
 40
22.22499999444375
 40
22.22499999444375
 40
22.57777777213333
 40
22.57777777213333
 40
22.57777777213333
 40
22.93055554982292
 40
22.93055554982292
 40
22.93055554982292
 40
22.93055554982292
 10
1102.564224984776
 20
72.69978296793617
 10
1102.564224984776
 20
72.69978296793617
 10
1102.792979324996
 20
71.7448024994249
 10
1102.792979324996
 20
71.7448024994249
 10
1102.919069819756
 20
71.24939776864599
 10
1103.064452849234
 20
70.7891330118166
 10
1103.307676590493
 20
70.33610295550625
 10
1104.851079367884
 20
68.27076821209897
 10
1108.790890564816
 20
68.50744627193563
 10
1110.809716519173
 20
69.13342012160554
 10
1111.927994513685
 20
69.48103025606724
 10
1113.002175285986
 20
70.0553276734584
 10
1114.009521205873
 20
70.65408526879482
 10
1116.577495380578
 20
68.96598848102239
 10
1119.820708270392
 20
68.44371200545852
 10
1123.07012233208
 20
68.4309651521631
 10
1126.391194379861
 20
68.4185628084162
 10
1129.781857356443
 20
68.9411837935286
 10
1132.568939604011
 20
69.34701604169102
 10
1135.533099759519
 20
69.53718531247682
 10
1137.896435262401
 20
70.93486055084267
 10
1141.014935695649
 20
70.26410045986454
 10
1141.68741833437
 20
70.48872068550283
 10
1142.217274020001
 20
70.8318521958337
 10
1142.167664645014
 20
71.66797687010384
 10
1141.865874280506
 20
72.40798338033551
 10
1141.447639688596
 20
72.9250922126715
 10
1140.576030530828
 20
72.99433863192503
 10
1139.105663777724
 20
72.36181910083316
 10
1137.44581677293
 20
72.54923229523075
 10
1135.910682224703
 20
72.17233884914442
 10
1132.008767078109
 20
71.26283364103845
 10
1127.854670941995
 20
70.90592174876657
 10
1123.439436568098
 20
70.66683212209024
 10
1120.701963695519
 20
70.68991426184141
 10
1117.241709790134
 20
70.73228893630998
 10
1115.333126891306
 20
73.0394693827818
 10
1115.122287047608
 20
73.73468965170522
 10
1115.692794859966
 20
74.65763073220366
 10
1115.465418557939
 20
75.64602862692183
 10
1115.109195684764
 20
76.33573674306885
 10
1114.525596509563
 20
76.79221189486445
 10
1113.677414001095
 20
76.56828068832321
 10
1112.514349765274
 20
75.72802189947078
 10
1112.530197204506
 20
74.34137096665772
 10
1112.634239088161
 20
73.0808105286048
 10
1110.95992268233
 20
70.91694605431938
 10
1107.106238872529
 20
70.01364201808687
 10
1105.456038135094
 20
71.69140351940354
 10
1105.369910747963
 20
71.98802624068355
 10
1105.204546164671
 20
72.57024737769078
 10
1105.372666824351
 20
72.99847274650733
 10
1105.387825244487
 20
73.05014917878607
 10
1105.403672683718
 20
73.10630423519565
 10
1105.411251893786
 20
73.17003850167278
 10
1105.497379280917
 20
73.82012801973941
 10
1105.283783360832
 20
74.30726452135374
 10
1104.689159880078
 20
74.51844887459956
 10
1103.558479541819
 20
74.93358288057216
 10
1103.625314394233
 20
75.44104544554946
 10
1102.824674203461
 20
76.1476345295742
 10
1102.001296382486
 20
76.9059000458777
 10
1101.042181799392
 20
76.5407199244412
 10
1100.470295948841
 20
75.78107636994362
 10
1100.329736053043
 20
73.74709199545212
 10
1098.893131235694
 20
72.08001029013973
 10
1097.313210446158
 20
70.9848144353788
 10
1096.30379746898
 20
70.63582626272299
 10
1095.038758406796
 20
70.75123696147887
 10
1094.212624509433
 20
71.31175399692901
 10
1093.938394908807
 20
71.50123424861775
 10
1093.84193223522
 20
71.71069605412094
 10
1093.836420082444
 20
71.85849065043816
 10
1095.153824596003
 20
72.22918292465104
 10
1096.334803328347
 20
73.12490775081599
 10
1097.009353024359
 20
74.35549585814724
 10
1097.80792615784
 20
76.49834524997264
 10
1096.259011227671
 20
78.78554414263
 10
1093.878450247364
 20
78.45343693785192
 10
1091.683235404163
 20
78.14613442056763
 10
1090.600786402697
 20
76.59653047130226
 10
1090.704828286352
 20
73.92623696068512
 10
1089.49766682832
 20
73.97653535476975
 10
1088.415906845952
 20
74.37823348834989
 10
1087.294183755954
 20
74.82954099691761
 10
1086.332313096472
 20
75.2181477676538
 10
1086.16005832221
 20
76.12110729433778
 10
1084.759282497907
 20
75.85962454700731
 10
1083.657540961725
 20
74.69449325389583
 10
1084.429931369518
 20
73.92899303707331
 10
1085.152023383226
 20
73.00880803296307
 10
1085.875493435128
 20
72.09103459569252
 10
1085.84242051847
 20
70.71437443978668
 10
1084.696581760076
 20
70.06394041217152
 10
1083.053960232709
 20
69.67464462233829
 10
1081.680056153191
 20
71.11262747788157
 10
1080.680978462469
 20
72.17854002101787
 10
1080.694069825313
 20
72.81416013804646
 10
1080.712673340933
 20
74.04784883131443
 10
1080.549375814932
 20
74.59148489888686
 10
1080.224158801125
 20
75.68254663906548
 10
1079.519292264843
 20
76.61926810150491
 10
1078.225314400583
 20
76.18690861810606
 10
1077.417094999743
 20
75.1120388267081
 10
1077.726464574318
 20
73.82460664387024
 10
1078.169503853722
 20
72.72803275091522
 10
1077.80776882777
 20
71.60493162272377
 10
1077.27309000846
 20
70.50973576796285
 10
1076.22440294275
 20
69.95300833754648
 10
1075.005528160068
 20
69.66258678813992
 10
1072.883349341154
 20
69.95404186619204
 10
1072.005539011513
 20
72.12996417467585
 10
1072.055837405597
 20
72.4190076858883
 10
1072.189507110425
 20
73.24135197821744
 10
1072.190885148619
 20
74.07954370977873
 10
1072.192263186813
 20
74.59699705166325
 10
1072.14403185002
 20
75.15682506801635
 10
1071.977289228533
 20
75.61330021981196
 10
1071.43158610367
 20
77.09641382621201
 10
1069.207432458393
 20
77.0809108965284
 10
1069.208810496587
 20
74.5301621992494
 10
1069.208810496587
 20
73.92003578881166
 10
1069.299761017397
 20
73.30818683063129
 10
1069.442387970487
 20
72.71700844536242
 10
1068.557687449874
 20
70.89972057689313
 10
1066.736609976371
 20
70.53488496500518
 10
1065.457790532247
 20
70.77948674445791
 10
1063.580213492786
 20
71.73756779890589
 10
1062.973876687382
 20
73.78016491211052
 10
1062.708604335017
 20
75.88305119630702
 10
1064.052191574265
 20
77.73513452917733
 10
1065.184938969815
 20
79.35777450273001
 10
1066.356960453897
 20
81.61190047872897
 10
1067.701925731338
 20
84.11062823418068
 10
1068.222824168708
 20
85.13244355510578
 10
1068.32755507146
 20
88.21270342846766
 10
1068.006472172234
 20
92.00782061501889
 10
1063.338367789721
 20
90.92399357535929
 10
1062.342735194484
 20
88.91274683107042
 10
1059.964930290564
 20
85.18756508286978
 10
1059.55496392782
 20
80.18115232370472
 10
1059.973887538826
 20
75.94402938639594
 10
1059.507421610123
 20
75.06759709494838
 10
1058.803933112035
 20
74.39442543713056
 10
1058.110779900403
 20
73.7012722254983
 10
1057.471370178341
 20
73.15074596695537
 10
1056.947715664583
 20
73.00191784199258
 10
1056.574267313981
 20
72.14753416165063
 10
1056.760302470185
 20
71.80268010357712
 10
1056.814734978852
 20
71.74790308536164
 10
1057.256396220061
 20
71.48159720435183
 10
1058.616519917638
 20
71.06439614108807
 10
1059.425428337574
 20
71.89328611483919
 10
1060.292214361663
 20
72.72424314588145
 10
1060.292214361663
 20
72.72424314588145
 10
1060.669796826847
 20
73.07564288537692
 10
1060.669796826847
 20
73.07564288537692
 10
1061.566210672109
 20
71.19909937456134
 10
1062.935291617947
 20
69.04557018673167
 10
1065.141530766701
 20
68.43199868080868
 10
1066.420350210826
 20
68.2173692320776
 10
1067.969265140994
 20
68.2256374612422
 10
1069.127506243135
 20
68.94910751314467
 10
1069.127506243135
 20
68.94910751314467
 10
1070.833517527431
 20
70.04464787745412
 10
1070.833517527431
 20
70.04464787745412
 10
1072.074440921218
 20
68.58117131531999
 10
1073.68536757012
 20
67.4050157166557
 10
1075.811680503617
 20
67.60517576434872
 10
1077.213834366113
 20
67.6658094448891
 10
1078.323155112364
 20
68.66454262606304
 10
1079.218879938529
 20
69.63468151470938
 10
1079.218879938529
 20
69.63468151470938
 10
1079.733577204025
 20
70.20966795119759
 10
1079.733577204025
 20
70.20966795119759
 10
1081.113682455416
 20
68.75824922326183
 10
1082.721164008834
 20
67.40536022620422
 10
1085.126529676635
 20
67.85081107244702
 10
1086.601030544322
 20
68.04132485278134
 10
1087.385823295862
 20
68.85540091594588
 10
1087.961843260996
 20
70.14558917517193
 10
1088.233316785233
 20
70.77707517761823
 10
1088.15476860817
 20
71.46574976511968
 10
1088.086555717562
 20
72.12479653144797
 10
1089.08907850377
 20
71.86641437005423
 10
1090.128808321218
 20
71.65247394042022
 10
1091.164404024084
 20
71.61319985188837
 10
1091.518559839968
 20
70.69749347190897
 10
1092.144878199186
 20
69.63399249561233
 10
1093.068163789233
 20
69.20852320318399
 10
1095.067008189775
 20
68.2876491799767
 10
1095.180007321691
 20
68.4392333813277
 10
1097.059651418444
 20
68.53879664085142
 10
1099.458815914371
 20
68.98424748709422
 10
1101.221326764625
 20
70.85803492152161
 10
1102.564224984776
 20
72.69978296793617
 72
     1
 10
1102.564224984776
 20
72.69978296793617
 11
1102.564224984776
 21
72.69978296793617
 97
        0
 92
        1
 93
        2
 72
     4
 94
        3
 73
     0
 74
     0
 95
       53
 96
       49
 40
0.0
 40
0.0
 40
0.0
 40
0.0
 40
0.3527777776895833
 40
0.3527777776895833
 40
0.3527777776895833
 40
0.7055555553791667
 40
0.7055555553791667
 40
0.7055555553791667
 40
1.05833333306875
 40
1.05833333306875
 40
1.05833333306875
 40
1.411111110758333
 40
1.411111110758333
 40
1.411111110758333
 40
1.763888888447917
 40
1.763888888447917
 40
1.763888888447917
 40
2.1166666661375
 40
2.1166666661375
 40
2.1166666661375
 40
2.469444443827083
 40
2.469444443827083
 40
2.469444443827083
 40
2.822222221516667
 40
2.822222221516667
 40
2.822222221516667
 40
3.17499999920625
 40
3.17499999920625
 40
3.17499999920625
 40
3.527777776895833
 40
3.527777776895833
 40
3.527777776895833
 40
3.880555554585417
 40
3.880555554585417
 40
3.880555554585417
 40
4.233333332275
 40
4.233333332275
 40
4.233333332275
 40
4.586111109964584
 40
4.586111109964584
 40
4.586111109964584
 40
4.938888887654167
 40
4.938888887654167
 40
4.938888887654167
 40
5.29166666534375
 40
5.29166666534375
 40
5.29166666534375
 40
5.644444443033334
 40
5.644444443033334
 40
5.644444443033334
 40
5.644444443033334
 10
1043.992089582752
 20
86.06537541251144
 10
1043.992089582752
 20
86.06537541251144
 10
1043.482904470032
 20
86.53631996534509
 10
1043.482904470032
 20
86.53631996534509
 10
1043.482904470032
 20
86.53631996534509
 10
1043.973486067132
 20
86.77334253473028
 10
1043.973486067132
 20
86.77334253473028
 10
1044.744498436731
 20
87.02070039057122
 10
1045.580967620549
 20
87.08236759975719
 10
1045.973019486771
 20
86.18733179268928
 10
1046.068793141261
 20
85.40219453160084
 10
1045.741509070162
 20
84.92814939283046
 10
1045.185470658843
 20
84.43894583392499
 10
1043.988644487267
 20
84.33008081659109
 10
1043.186626258301
 20
83.22730575176263
 10
1042.446619748069
 20
82.40082734485118
 10
1041.592925086824
 20
80.38854707191676
 10
1042.295724565815
 20
77.97077906036841
 10
1042.713959157724
 20
75.94402938639594
 10
1042.713959157724
 20
75.94402938639594
 10
1042.96958524273
 20
75.6952934923609
 10
1042.96958524273
 20
75.6952934923609
 10
1043.430539018656
 20
75.2388183405653
 10
1043.805365407452
 20
74.75305987714508
 10
1043.772292490793
 20
74.05611706047902
 10
1043.333387325972
 20
72.87617185678096
 10
1040.991411415099
 20
72.30221894893833
 10
1040.741986501967
 20
74.18599716027295
 10
1040.318239757282
 20
74.93358288057216
 10
1040.14805204031
 20
75.47618541949902
 10
1040.039187022976
 20
76.02981226397866
 10
1040.039187022976
 20
76.02981226397866
 10
1039.962705903204
 20
76.46665037150834
 10
1039.962705903204
 20
76.46665037150834
 10
1039.81870091192
 20
75.3752441217812
 10
1039.993711762571
 20
74.10434839727253
 10
1040.176301823289
 20
73.03189017271426
 10
1040.552506250279
 20
71.61182181369426
 10
1041.532291406284
 20
70.52730575493761
 10
1042.936512326072
 20
69.95714245212878
 10
1046.154920528392
 20
69.19405380214593
 10
1048.809711109325
 20
71.39271374083238
 10
1050.645947002964
 20
73.7715521733974
 10
1053.537760153282
 20
77.90118813156637
 10
1056.105734327987
 20
83.07882213634835
 10
1053.769270569891
 20
88.08144529047965
 10
1050.98081028413
 20
91.57063799794068
 10
1045.51068767265
 20
89.95006508167916
 10
1043.992089582752
 20
86.06537541251144
 72
     1
 10
1043.992089582752
 20
86.06537541251144
 11
1043.992089582752
 21
86.06537541251144
 97
        0
 92
        1
 93
        2
 72
     4
 94
        3
 73
     0
 74
     0
 95
       23
 96
       19
 40
0.0
 40
0.0
 40
0.0
 40
0.0
 40
0.3527777776895833
 40
0.3527777776895833
 40
0.3527777776895833
 40
0.7055555553791667
 40
0.7055555553791667
 40
0.7055555553791667
 40
1.05833333306875
 40
1.05833333306875
 40
1.05833333306875
 40
1.411111110758333
 40
1.411111110758333
 40
1.411111110758333
 40
1.763888888447917
 40
1.763888888447917
 40
1.763888888447917
 40
2.1166666661375
 40
2.1166666661375
 40
2.1166666661375
 40
2.1166666661375
 10
1052.651681594476
 20
72.06485187000462
 10
1050.386875822473
 20
68.9894151303221
 10
1046.69717855777
 20
66.93992782614697
 10
1042.748410112577
 20
67.49596623746629
 10
1039.964772960495
 20
68.23735078589205
 10
1038.162988021709
 20
70.94175074181318
 10
1037.70272326488
 20
73.60136445642605
 10
1037.141861719881
 20
77.07815482014018
 10
1038.084439844646
 20
80.24454208063331
 10
1039.920675738284
 20
82.86178112077761
 10
1040.471201996827
 20
86.66344398875081
 10
1042.633343923369
 20
90.31421167447006
 10
1046.406412498815
 20
91.99231768533525
 10
1048.758723696144
 20
92.850490970711
 10
1054.025585673994
 20
93.2284179454429
 10
1055.810145135353
 20
89.37094453060865
 10
1059.049912929682
 20
83.39611543053987
 10
1055.801187887091
 20
76.83596460752712
 10
1052.651681594476
 20
72.06485187000462
 72
     1
 10
1052.651681594476
 20
72.06485187000462
 11
1052.651681594476
 21
72.06485187000462
 97
        0
 92
        1
 93
        2
 72
     4
 94
        3
 73
     0
 74
     0
 95
       17
 96
       13
 40
0.0
 40
0.0
 40
0.0
 40
0.0
 40
0.3527777776895833
 40
0.3527777776895833
 40
0.3527777776895833
 40
0.7055555553791667
 40
0.7055555553791667
 40
0.7055555553791667
 40
1.05833333306875
 40
1.05833333306875
 40
1.05833333306875
 40
1.411111110758333
 40
1.411111110758333
 40
1.411111110758333
 40
1.411111110758333
 10
1115.234597160427
 20
79.10490449411266
 10
1115.387559399973
 20
79.5699923846214
 10
1115.337950024985
 20
80.1890760433208
 10
1115.059586309777
 20
80.61730141213735
 10
1114.457383618955
 20
81.3752224188923
 10
1113.297075459523
 20
81.91369084323686
 10
1112.577050503106
 20
80.92046981483934
 10
1112.214626458057
 20
80.03404674648455
 10
1112.486099982295
 20
79.15175779271206
 10
1113.197856709548
 20
78.54335393001695
 10
1113.954399678109
 20
78.3621419074928
 10
1114.816362568518
 20
78.18092988496866
 10
1115.234597160427
 20
79.10490449411266
 72
     1
 10
1115.234597160427
 20
79.10490449411266
 11
1115.234597160427
 21
79.10490449411266
 97
        0
 92
        1
 93
        2
 72
     4
 94
        3
 73
     0
 74
     0
 95
       17
 96
       13
 40
0.0
 40
0.0
 40
0.0
 40
0.0
 40
0.3527777776895833
 40
0.3527777776895833
 40
0.3527777776895833
 40
0.7055555553791667
 40
0.7055555553791667
 40
0.7055555553791667
 40
1.05833333306875
 40
1.05833333306875
 40
1.05833333306875
 40
1.411111110758333
 40
1.411111110758333
 40
1.411111110758333
 40
1.411111110758333
 10
1071.796077206009
 20
80.52462834358413
 10
1071.406781416176
 20
79.96652287497365
 10
1070.445599775791
 20
79.96514483677954
 10
1069.948817006818
 20
80.16806096086077
 10
1069.230170088595
 20
80.46123858665553
 10
1068.547352163419
 20
81.40932886419628
 10
1069.073762753565
 20
82.32606877282126
 10
1069.661496043349
 20
83.34926213194046
 10
1070.881059845127
 20
83.06814234034408
 10
1071.510823299831
 20
82.55516762259037
 10
1071.90563124244
 20
82.2340847233651
 10
1072.321798777059
 20
81.27634817846564
 10
1071.796077206009
 20
80.52462834358413
 72
     1
 10
1071.796077206009
 20
80.52462834358413
 11
1071.796077206009
 21
80.52462834358413
 97
        0
 75
     2
 76
     1
 98
        0
  0
SPLINE
  5
4B7
330
4A9
100
AcDbEntity
  8
Layer 1
370
     0
100
AcDbSpline
210
0.0
220
0.0
230
1.0
 70
    11
 71
     3
 72
    20
 73
    16
 74
     0
 42
0.0000000001
 43
0.0000000001
 40
0.0
 40
0.0
 40
0.0
 40
0.0
 40
1.0
 40
1.0
 40
1.0
 40
2.0
 40
2.0
 40
2.0
 40
3.0
 40
3.0
 40
3.0
 40
4.0
 40
4.0
 40
4.0
 40
5.0
 40
5.0
 40
5.0
 40
5.0
 10
1139.599001451212
 20
76.0718424288987
 30
0.0
 10
1139.599001451212
 20
76.0718424288987
 30
0.0
 10
1139.894590643846
 20
76.0718424288987
 30
0.0
 10
1139.894590643846
 20
76.0718424288987
 30
0.0
 10
1140.053065036167
 20
76.0718424288987
 30
0.0
 10
1140.208783352101
 20
76.02223305391111
 30
0.0
 10
1140.208783352101
 20
75.84894475100305
 30
0.0
 10
1140.208783352101
 20
75.6498182319556
 30
0.0
 10
1140.085448933729
 20
75.61019963387523
 30
0.0
 10
1139.894590643846
 20
75.61019963387523
 30
0.0
 10
1139.894590643846
 20
75.61019963387523
 30
0.0
 10
1139.599001451212
 20
75.61019963387523
 30
0.0
 10
1139.599001451212
 20
75.61019963387523
 30
0.0
 10
1139.599001451212
 20
75.61019963387523
 30
0.0
 10
1139.599001451212
 20
76.0718424288987
 30
0.0
 10
1139.599001451212
 20
76.0718424288987
 30
0.0
  0
SPLINE
  5
4B8
330
4A9
100
AcDbEntity
  8
Layer 1
370
     0
100
AcDbSpline
210
0.0
220
0.0
230
1.0
 70
    11
 71
     3
 72
    35
 73
    31
 74
     0
 42
0.0000000001
 43
0.0000000001
 40
0.0
 40
0.0
 40
0.0
 40
0.0
 40
1.0
 40
1.0
 40
1.0
 40
2.0
 40
2.0
 40
2.0
 40
3.0
 40
3.0
 40
3.0
 40
4.0
 40
4.0
 40
4.0
 40
5.0
 40
5.0
 40
5.0
 40
6.0
 40
6.0
 40
6.0
 40
7.0
 40
7.0
 40
7.0
 40
8.0
 40
8.0
 40
8.0
 40
9.0
 40
9.0
 40
9.0
 40
10.0
 40
10.0
 40
10.0
 40
10.0
 10
1139.348887518982
 20
74.74031302384965
 30
0.0
 10
1139.348887518982
 20
74.74031302384965
 30
0.0
 10
1139.599001451212
 20
74.74031302384965
 30
0.0
 10
1139.599001451212
 20
74.74031302384965
 30
0.0
 10
1139.599001451212
 20
74.74031302384965
 30
0.0
 10
1139.599001451212
 20
75.41520722941009
 30
0.0
 10
1139.599001451212
 20
75.41520722941009
 30
0.0
 10
1139.599001451212
 20
75.41520722941009
 30
0.0
 10
1139.807085218521
 20
75.41520722941009
 30
0.0
 10
1139.807085218521
 20
75.41520722941009
 30
0.0
 10
1139.807085218521
 20
75.41520722941009
 30
0.0
 10
1140.233588039594
 20
74.74031302384965
 30
0.0
 10
1140.233588039594
 20
74.74031302384965
 30
0.0
 10
1140.233588039594
 20
74.74031302384965
 30
0.0
 10
1140.497482353765
 20
74.74031302384965
 30
0.0
 10
1140.497482353765
 20
74.74031302384965
 30
0.0
 10
1140.497482353765
 20
74.74031302384965
 30
0.0
 10
1140.06408934172
 20
75.41520722941009
 30
0.0
 10
1140.06408934172
 20
75.41520722941009
 30
0.0
 10
1140.302489949299
 20
75.41520722941009
 30
0.0
 10
1140.458208265233
 20
75.59262964690046
 30
0.0
 10
1140.458208265233
 20
75.83757593590173
 30
0.0
 10
1140.458208265233
 20
76.12593042801713
 30
0.0
 10
1140.283886433679
 20
76.26683483336384
 30
0.0
 10
1139.933864732378
 20
76.26683483336384
 30
0.0
 10
1139.933864732378
 20
76.26683483336384
 30
0.0
 10
1139.348887518982
 20
76.26683483336384
 30
0.0
 10
1139.348887518982
 20
76.26683483336384
 30
0.0
 10
1139.348887518982
 20
76.26683483336384
 30
0.0
 10
1139.348887518982
 20
74.74031302384965
 30
0.0
 10
1139.348887518982
 20
74.74031302384965
 30
0.0
  0
SPLINE
  5
4B9
330
4A9
100
AcDbEntity
  8
Layer 1
370
     0
100
AcDbSpline
210
0.0
220
0.0
230
1.0
 70
    11
 71
     3
 72
    17
 73
    13
 74
     0
 42
0.0000000001
 43
0.0000000001
 40
0.0
 40
0.0
 40
0.0
 40
0.0
 40
1.0
 40
1.0
 40
1.0
 40
2.0
 40
2.0
 40
2.0
 40
3.0
 40
3.0
 40
3.0
 40
4.0
 40
4.0
 40
4.0
 40
4.0
 10
1138.79353812676
 20
75.50202363563838
 30
0.0
 10
1138.79353812676
 20
76.12593042801713
 30
0.0
 10
1139.245534654425
 20
76.61031085324326
 30
0.0
 10
1139.851182440732
 20
76.61031085324326
 30
0.0
 10
1140.449940036068
 20
76.61031085324326
 30
0.0
 10
1140.900558525539
 20
76.12593042801713
 30
0.0
 10
1140.900558525539
 20
75.50202363563838
 30
0.0
 10
1140.900558525539
 20
74.87811684325965
 30
0.0
 10
1140.449940036068
 20
74.39442543713056
 30
0.0
 10
1139.851182440732
 20
74.39442543713056
 30
0.0
 10
1139.245534654425
 20
74.39442543713056
 30
0.0
 10
1138.79353812676
 20
74.87811684325965
 30
0.0
 10
1138.79353812676
 20
75.50202363563838
 30
0.0
  0
SPLINE
  5
4BA
330
4A9
100
AcDbEntity
  8
Layer 1
370
     0
100
AcDbSpline
210
0.0
220
0.0
230
1.0
 70
    11
 71
     3
 72
    17
 73
    13
 74
     0
 42
0.0000000001
 43
0.0000000001
 40
0.0
 40
0.0
 40
0.0
 40
0.0
 40
1.0
 40
1.0
 40
1.0
 40
2.0
 40
2.0
 40
2.0
 40
3.0
 40
3.0
 40
3.0
 40
4.0
 40
4.0
 40
4.0
 40
4.0
 10
1138.544802232725
 20
75.50202363563838
 30
0.0
 10
1138.544802232725
 20
74.78441024606084
 30
0.0
 10
1139.129090427023
 20
74.19874401356837
 30
0.0
 10
1139.847737345247
 20
74.19874401356837
 30
0.0
 10
1140.565695244373
 20
74.19874401356837
 30
0.0
 10
1141.149983438671
 20
74.78441024606084
 30
0.0
 10
1141.149983438671
 20
75.50202363563838
 30
0.0
 10
1141.149983438671
 20
76.22032604431298
 30
0.0
 10
1140.565695244373
 20
76.8053032577084
 30
0.0
 10
1139.847737345247
 20
76.8053032577084
 30
0.0
 10
1139.129090427023
 20
76.8053032577084
 30
0.0
 10
1138.544802232725
 20
76.22032604431298
 30
0.0
 10
1138.544802232725
 20
75.50202363563838
 30
0.0
  0
HATCH
  5
4BB
330
4A9
100
AcDbEntity
  8
Layer 1
 62
   152
100
AcDbHatch
 10
0.0
 20
0.0
 30
0.0
210
0.0
220
0.0
230
1.0
  2
SOLID
 70
     1
 71
     0
 91
        4
 92
        1
 93
        1
 72
     4
 94
        3
 73
     0
 74
     1
 95
       20
 96
       16
 40
0.0
 40
0.0
 40
0.0
 40
0.0
 40
1.0
 40
1.0
 40
1.0
 40
2.0
 40
2.0
 40
2.0
 40
3.0
 40
3.0
 40
3.0
 40
4.0
 40
4.0
 40
4.0
 40
5.0
 40
5.0
 40
5.0
 40
5.0
 10
1139.599001451212
 20
76.0718424288987
 10
1139.599001451212
 20
76.0718424288987
 10
1139.894590643846
 20
76.0718424288987
 10
1139.894590643846
 20
76.0718424288987
 10
1140.053065036167
 20
76.0718424288987
 10
1140.208783352101
 20
76.02223305391111
 10
1140.208783352101
 20
75.84894475100305
 10
1140.208783352101
 20
75.6498182319556
 10
1140.085448933729
 20
75.61019963387523
 10
1139.894590643846
 20
75.61019963387523
 10
1139.894590643846
 20
75.61019963387523
 10
1139.599001451212
 20
75.61019963387523
 10
1139.599001451212
 20
75.61019963387523
 10
1139.599001451212
 20
75.61019963387523
 10
1139.599001451212
 20
76.0718424288987
 10
1139.599001451212
 20
76.0718424288987
 97
        0
 92
        1
 93
        1
 72
     4
 94
        3
 73
     0
 74
     1
 95
       35
 96
       31
 40
0.0
 40
0.0
 40
0.0
 40
0.0
 40
1.0
 40
1.0
 40
1.0
 40
2.0
 40
2.0
 40
2.0
 40
3.0
 40
3.0
 40
3.0
 40
4.0
 40
4.0
 40
4.0
 40
5.0
 40
5.0
 40
5.0
 40
6.0
 40
6.0
 40
6.0
 40
7.0
 40
7.0
 40
7.0
 40
8.0
 40
8.0
 40
8.0
 40
9.0
 40
9.0
 40
9.0
 40
10.0
 40
10.0
 40
10.0
 40
10.0
 10
1139.348887518982
 20
74.74031302384965
 10
1139.348887518982
 20
74.74031302384965
 10
1139.599001451212
 20
74.74031302384965
 10
1139.599001451212
 20
74.74031302384965
 10
1139.599001451212
 20
74.74031302384965
 10
1139.599001451212
 20
75.41520722941009
 10
1139.599001451212
 20
75.41520722941009
 10
1139.599001451212
 20
75.41520722941009
 10
1139.807085218521
 20
75.41520722941009
 10
1139.807085218521
 20
75.41520722941009
 10
1139.807085218521
 20
75.41520722941009
 10
1140.233588039594
 20
74.74031302384965
 10
1140.233588039594
 20
74.74031302384965
 10
1140.233588039594
 20
74.74031302384965
 10
1140.497482353765
 20
74.74031302384965
 10
1140.497482353765
 20
74.74031302384965
 10
1140.497482353765
 20
74.74031302384965
 10
1140.06408934172
 20
75.41520722941009
 10
1140.06408934172
 20
75.41520722941009
 10
1140.302489949299
 20
75.41520722941009
 10
1140.458208265233
 20
75.59262964690046
 10
1140.458208265233
 20
75.83757593590173
 10
1140.458208265233
 20
76.12593042801713
 10
1140.283886433679
 20
76.26683483336384
 10
1139.933864732378
 20
76.26683483336384
 10
1139.933864732378
 20
76.26683483336384
 10
1139.348887518982
 20
76.26683483336384
 10
1139.348887518982
 20
76.26683483336384
 10
1139.348887518982
 20
76.26683483336384
 10
1139.348887518982
 20
74.74031302384965
 10
1139.348887518982
 20
74.74031302384965
 97
        0
 92
        1
 93
        2
 72
     4
 94
        3
 73
     0
 74
     0
 95
       17
 96
       13
 40
0.0
 40
0.0
 40
0.0
 40
0.0
 40
0.3527777776895833
 40
0.3527777776895833
 40
0.3527777776895833
 40
0.7055555553791667
 40
0.7055555553791667
 40
0.7055555553791667
 40
1.05833333306875
 40
1.05833333306875
 40
1.05833333306875
 40
1.411111110758333
 40
1.411111110758333
 40
1.411111110758333
 40
1.411111110758333
 10
1138.79353812676
 20
75.50202363563838
 10
1138.79353812676
 20
76.12593042801713
 10
1139.245534654425
 20
76.61031085324326
 10
1139.851182440732
 20
76.61031085324326
 10
1140.449940036068
 20
76.61031085324326
 10
1140.900558525539
 20
76.12593042801713
 10
1140.900558525539
 20
75.50202363563838
 10
1140.900558525539
 20
74.87811684325965
 10
1140.449940036068
 20
74.39442543713056
 10
1139.851182440732
 20
74.39442543713056
 10
1139.245534654425
 20
74.39442543713056
 10
1138.79353812676
 20
74.87811684325965
 10
1138.79353812676
 20
75.50202363563838
 72
     1
 10
1138.79353812676
 20
75.50202363563838
 11
1138.79353812676
 21
75.50202363563838
 97
        0
 92
        1
 93
        2
 72
     4
 94
        3
 73
     0
 74
     0
 95
       17
 96
       13
 40
0.0
 40
0.0
 40
0.0
 40
0.0
 40
0.3527777776895833
 40
0.3527777776895833
 40
0.3527777776895833
 40
0.7055555553791667
 40
0.7055555553791667
 40
0.7055555553791667
 40
1.05833333306875
 40
1.05833333306875
 40
1.05833333306875
 40
1.411111110758333
 40
1.411111110758333
 40
1.411111110758333
 40
1.411111110758333
 10
1138.544802232725
 20
75.50202363563838
 10
1138.544802232725
 20
74.78441024606084
 10
1139.129090427023
 20
74.19874401356837
 10
1139.847737345247
 20
74.19874401356837
 10
1140.565695244373
 20
74.19874401356837
 10
1141.149983438671
 20
74.78441024606084
 10
1141.149983438671
 20
75.50202363563838
 10
1141.149983438671
 20
76.22032604431298
 10
1140.565695244373
 20
76.8053032577084
 10
1139.847737345247
 20
76.8053032577084
 10
1139.129090427023
 20
76.8053032577084
 10
1138.544802232725
 20
76.22032604431298
 10
1138.544802232725
 20
75.50202363563838
 72
     1
 10
1138.544802232725
 20
75.50202363563838
 11
1138.544802232725
 21
75.50202363563838
 97
        0
 75
     2
 76
     1
 98
        0
  0
ENDBLK
  5
4AC
330
4A9
100
AcDbEntity
  8
0
100
AcDbBlockEnd
  0
ENDSEC
  0
SECTION
  2
ENTITIES
  0
INSERT
  5
3D
330
1F
100
AcDbEntity
  8
Layer 1
100
AcDbBlockReference
  2
block 2
 10
0.0
 20
0.0
 30
0.0
  0
MTEXT
  5
4A8
330
1F
100
AcDbEntity
  8
Layer 1
 62
     7
100
AcDbMText
 10
996.3340166779999
 20
50.10409069927954
 30
0.0
 40
9.595555553156668
 41
0.0
 71
     7
 72
     1
  1
\fFrutiger LT Std 55 Roman|b0|i0|c0|p34;\W1;CAD Drawing: SN1051
 73
     1
 44
1.0
  0
INSERT
  5
4AA
330
1F
100
AcDbEntity
  8
Layer 1
100
AcDbBlockReference
  2
block 3
 10
0.0
 20
0.0
 30
0.0
  0
ENDSEC
  0
SECTION
  2
OBJECTS
  0
DICTIONARY
  5
C
330
0
100
AcDbDictionary
281
     1
  3
ACAD_GROUP
350
D
  3
ACAD_LAYOUT
350
1A
  3
ACAD_MLINESTYLE
350
17
  3
ACAD_PLOTSETTINGS
350
19
  3
ACAD_PLOTSTYLENAME
350
E
  3
ACAD_TABLESTYLE
350
4BC
  3
ACAD_VISUALSTYLE
350
2A
  0
DICTIONARY
  5
D
102
{ACAD_REACTORS
330
C
102
}
330
C
100
AcDbDictionary
281
     1
  0
DICTIONARY
  5
1A
102
{ACAD_REACTORS
330
C
102
}
330
C
100
AcDbDictionary
281
     1
  3
Layout1
350
1E
  3
Layout2
350
26
  3
Model
350
22
  0
DICTIONARY
  5
17
102
{ACAD_REACTORS
330
C
102
}
330
C
100
AcDbDictionary
281
     1
  3
Standard
350
18
  0
DICTIONARY
  5
19
102
{ACAD_REACTORS
330
C
102
}
330
C
100
AcDbDictionary
281
     1
  0
ACDBDICTIONARYWDFLT
  5
E
102
{ACAD_REACTORS
330
C
102
}
330
C
100
AcDbDictionary
281
     1
  3
Normal
350
F
100
AcDbDictionaryWithDefault
340
F
  0
DICTIONARY
  5
4BC
102
{ACAD_REACTORS
330
C
102
}
330
C
100
AcDbDictionary
281
     1
  0
DICTIONARY
  5
2A
102
{ACAD_REACTORS
330
C
102
}
330
C
100
AcDbDictionary
281
     1
  3
2dWireframe
350
2F
  3
3D Hidden
350
31
  3
3dWireframe
350
30
  3
Basic
350
32
  3
Brighten
350
36
  3
ColorChange
350
3A
  3
Conceptual
350
34
  3
Dim
350
35
  3
Facepattern
350
39
  3
Flat
350
2B
  3
FlatWithEdges
350
2C
  3
Gouraud
350
2D
  3
GouraudWithEdges
350
2E
  3
Linepattern
350
38
  3
Realistic
350
33
  3
Thicken
350
37
  0
LAYOUT
  5
1E
102
{ACAD_REACTORS
330
1A
102
}
330
1A
100
AcDbPlotSettings
  1

  2
none_device
  4

  6

 40
0.0
 41
0.0
 42
0.0
 43
0.0
 44
0.0
 45
0.0
 46
0.0
 47
0.0
 48
0.0
 49
0.0
140
0.0
141
0.0
142
1.0
143
1.0
 70
   688
 72
     0
 73
     0
 74
     5
  7

 75
    16
147
1.0
148
0.0
149
0.0
100
AcDbLayout
  1
Layout1
 70
     1
 71
     1
 10
0.0
 20
0.0
 11
12.0
 21
9.0
 12
0.0
 22
0.0
 32
0.0
 14
1.000000000000000E+20
 24
1.000000000000000E+20
 34
1.000000000000000E+20
 15
-1.000000000000000E+20
 25
-1.000000000000000E+20
 35
-1.000000000000000E+20
146
0.0
 13
0.0
 23
0.0
 33
0.0
 16
1.0
 26
0.0
 36
0.0
 17
0.0
 27
1.0
 37
0.0
 76
     0
330
1B
  0
LAYOUT
  5
26
102
{ACAD_REACTORS
330
1A
102
}
330
1A
100
AcDbPlotSettings
  1

  2
none_device
  4

  6

 40
0.0
 41
0.0
 42
0.0
 43
0.0
 44
0.0
 45
0.0
 46
0.0
 47
0.0
 48
0.0
 49
0.0
140
0.0
141
0.0
142
1.0
143
1.0
 70
   688
 72
     0
 73
     0
 74
     5
  7

 75
    16
147
1.0
148
0.0
149
0.0
100
AcDbLayout
  1
Layout2
 70
     1
 71
     2
 10
0.0
 20
0.0
 11
0.0
 21
0.0
 12
0.0
 22
0.0
 32
0.0
 14
0.0
 24
0.0
 34
0.0
 15
0.0
 25
0.0
 35
0.0
146
0.0
 13
0.0
 23
0.0
 33
0.0
 16
1.0
 26
0.0
 36
0.0
 17
0.0
 27
1.0
 37
0.0
 76
     0
330
23
  0
LAYOUT
  5
22
102
{ACAD_REACTORS
330
1A
102
}
330
1A
100
AcDbPlotSettings
  1

  2
none_device
  4

  6

 40
0.0
 41
0.0
 42
0.0
 43
0.0
 44
0.0
 45
0.0
 46
0.0
 47
0.0
 48
0.0
 49
0.0
140
0.0
141
0.0
142
1.0
143
1.0
 70
  1712
 72
     0
 73
     0
 74
     0
  7

 75
     0
147
1.0
148
0.0
149
0.0
100
AcDbLayout
  1
Model
 70
     1
 71
     0
 10
0.0
 20
0.0
 11
12.0
 21
9.0
 12
0.0
 22
0.0
 32
0.0
 14
1.000000000000000E+20
 24
1.000000000000000E+20
 34
1.000000000000000E+20
 15
-1.000000000000000E+20
 25
-1.000000000000000E+20
 35
-1.000000000000000E+20
146
0.0
 13
0.0
 23
0.0
 33
0.0
 16
1.0
 26
0.0
 36
0.0
 17
0.0
 27
1.0
 37
0.0
 76
     0
330
1F
331
29
  0
MLINESTYLE
  5
18
102
{ACAD_REACTORS
330
17
102
}
330
17
100
AcDbMlineStyle
  2
Standard
 70
     0
  3

 62
   256
 51
90.0
 52
90.0
 71
     2
 49
0.5
 62
   256
  6
BYLAYER
 49
-0.5
 62
   256
  6
BYLAYER
  0
ACDBPLACEHOLDER
  5
F
102
{ACAD_REACTORS
330
E
102
}
330
E
  0
VISUALSTYLE
  5
2F
102
{ACAD_REACTORS
330
2A
102
}
330
2A
100
AcDbVisualStyle
  2
2dWireframe
 70
     4
 71
     0
 72
     2
 73
     0
 90
        0
 40
-0.6
 41
-30.0
 62
     5
 63
     7
 74
     1
 91
        4
 64
     7
 65
   257
 75
     1
175
     1
 42
1.0
 92
        0
 66
   257
 43
1.0
 76
     1
 77
     6
 78
     2
 67
     7
 79
     5
170
     0
171
     0
290
     0
174
     0
 93
        1
 44
0.0
173
     0
291
     0
 45
0.0
1001
ACAD
1000
AcDbSavedByObjectVersion
1070
     0
  0
VISUALSTYLE
  5
31
102
{ACAD_REACTORS
330
2A
102
}
330
2A
100
AcDbVisualStyle
  2
3D Hidden
 70
     6
 71
     1
 72
     2
 73
     2
 90
        0
 40
-0.6
 41
-30.0
 62
     5
 63
     7
 74
     2
 91
        2
 64
     7
 65
   257
 75
     2
175
     1
 42
40.0
 92
        0
 66
   257
 43
1.0
 76
     1
 77
     6
 78
     2
 67
     7
 79
     3
170
     0
171
     0
290
     0
174
     0
 93
        1
 44
0.0
173
     0
291
     0
 45
0.0
1001
ACAD
1000
AcDbSavedByObjectVersion
1070
     0
  0
VISUALSTYLE
  5
30
102
{ACAD_REACTORS
330
2A
102
}
330
2A
100
AcDbVisualStyle
  2
3dWireframe
 70
     5
 71
     0
 72
     2
 73
     0
 90
        0
 40
-0.6
 41
-30.0
 62
     5
 63
     7
 74
     1
 91
        4
 64
     7
 65
   257
 75
     1
175
     1
 42
1.0
 92
        0
 66
   257
 43
1.0
 76
     1
 77
     6
 78
     2
 67
     7
 79
     5
170
     0
171
     0
290
     0
174
     0
 93
        1
 44
0.0
173
     0
291
     0
 45
0.0
1001
ACAD
1000
AcDbSavedByObjectVersion
1070
     0
  0
VISUALSTYLE
  5
32
102
{ACAD_REACTORS
330
2A
102
}
330
2A
100
AcDbVisualStyle
  2
Basic
 70
     7
 71
     1
 72
     0
 73
     1
 90
        0
 40
-0.6
 41
-30.0
 62
     5
 63
     7
 74
     0
 91
        4
 64
     7
 65
   257
 75
     1
175
     1
 42
1.0
 92
        8
 66
     7
 43
1.0
 76
     1
 77
     6
 78
     2
 67
     7
 79
     5
170
     0
171
     0
290
     0
174
     0
 93
        1
 44
0.0
173
     0
291
     1
 45
0.0
1001
ACAD
1000
AcDbSavedByObjectVersion
1070
     0
  0
VISUALSTYLE
  5
36
102
{ACAD_REACTORS
330
2A
102
}
330
2A
100
AcDbVisualStyle
  2
Brighten
 70
    12
 71
     2
 72
     2
 73
     0
 90
        0
 40
-0.6
 41
-30.0
 62
     5
 63
     7
 74
     1
 91
        4
 64
     7
 65
   257
 75
     1
175
     1
 42
1.0
 92
        8
 66
     7
 43
1.0
 76
     1
 77
     6
 78
     2
 67
     7
 79
     5
170
     0
171
     0
290
     0
174
     0
 93
        1
 44
50.0
173
     0
291
     1
 45
0.0
1001
ACAD
1000
AcDbSavedByObjectVersion
1070
     0
  0
VISUALSTYLE
  5
3A
102
{ACAD_REACTORS
330
2A
102
}
330
2A
100
AcDbVisualStyle
  2
ColorChange
 70
    16
 71
     2
 72
     2
 73
     3
 90
        0
 40
-0.6
 41
-30.0
 62
     5
 63
     8
 74
     1
 91
        4
 64
     7
 65
   257
 75
     1
175
     1
 42
1.0
 92
        8
 66
     8
 43
1.0
 76
     1
 77
     6
 78
     2
 67
     7
 79
     5
170
     0
171
     0
290
     0
174
     0
 93
        1
 44
0.0
173
     0
291
     1
 45
0.0
1001
ACAD
1000
AcDbSavedByObjectVersion
1070
     0
  0
VISUALSTYLE
  5
34
102
{ACAD_REACTORS
330
2A
102
}
330
2A
100
AcDbVisualStyle
  2
Conceptual
 70
     9
 71
     3
 72
     2
 73
     0
 90
        0
 40
-0.6
 41
-30.0
 62
     5
 63
     7
 74
     2
 91
        2
 64
     7
 65
   257
 75
     1
175
     1
 42
40.0
 92
        8
 66
     7
 43
1.0
 76
     1
 77
     6
 78
     2
 67
     7
 79
     3
170
     0
171
     0
290
     0
174
     0
 93
        1
 44
0.0
173
     0
291
     0
 45
0.0
1001
ACAD
1000
AcDbSavedByObjectVersion
1070
     0
  0
VISUALSTYLE
  5
35
102
{ACAD_REACTORS
330
2A
102
}
330
2A
100
AcDbVisualStyle
  2
Dim
 70
    11
 71
     2
 72
     2
 73
     0
 90
        0
 40
-0.6
 41
-30.0
 62
     5
 63
     7
 74
     1
 91
        4
 64
     7
 65
   257
 75
     1
175
     1
 42
1.0
 92
        8
 66
     7
 43
1.0
 76
     1
 77
     6
 78
     2
 67
     7
 79
     5
170
     0
171
     0
290
     0
174
     0
 93
        1
 44
-50.0
173
     0
291
     1
 45
0.0
1001
ACAD
1000
AcDbSavedByObjectVersion
1070
     0
  0
VISUALSTYLE
  5
39
102
{ACAD_REACTORS
330
2A
102
}
330
2A
100
AcDbVisualStyle
  2
Facepattern
 70
    15
 71
     2
 72
     2
 73
     0
 90
        0
 40
-0.6
 41
-30.0
 62
     5
 63
     7
 74
     1
 91
        4
 64
     7
 65
   257
 75
     1
175
     1
 42
1.0
 92
        8
 66
     7
 43
1.0
 76
     1
 77
     6
 78
     2
 67
     7
 79
     5
170
     0
171
     0
290
     0
174
     0
 93
        1
 44
0.0
173
     0
291
     1
 45
0.0
1001
ACAD
1000
AcDbSavedByObjectVersion
1070
     0
  0
VISUALSTYLE
  5
2B
102
{ACAD_REACTORS
330
2A
102
}
330
2A
100
AcDbVisualStyle
  2
Flat
 70
     0
 71
     2
 72
     1
 73
     1
 90
        2
 40
-0.6
 41
30.0
 62
     5
 63
     7
 74
     0
 91
        4
 64
     7
 65
   257
 75
     1
175
     1
 42
1.0
 92
        8
 66
     7
 43
1.0
 76
     1
 77
     6
 78
     2
 67
     7
 79
     5
170
     0
171
     0
290
     0
174
     0
 93
       13
 44
0.0
173
     0
291
     1
 45
0.0
1001
ACAD
1000
AcDbSavedByObjectVersion
1070
     0
  0
VISUALSTYLE
  5
2C
102
{ACAD_REACTORS
330
2A
102
}
330
2A
100
AcDbVisualStyle
  2
FlatWithEdges
 70
     1
 71
     2
 72
     1
 73
     1
 90
        2
 40
-0.6
 41
30.0
 62
     5
 63
     7
 74
     1
 91
        4
 64
     7
 65
   257
 75
     1
175
     1
 42
1.0
 92
        0
 66
   257
 43
1.0
 76
     1
 77
     6
 78
     2
 67
     7
 79
     5
170
     0
171
     0
290
     0
174
     0
 93
       13
 44
0.0
173
     0
291
     1
 45
0.0
1001
ACAD
1000
AcDbSavedByObjectVersion
1070
     0
  0
VISUALSTYLE
  5
2D
102
{ACAD_REACTORS
330
2A
102
}
330
2A
100
AcDbVisualStyle
  2
Gouraud
 70
     2
 71
     2
 72
     2
 73
     1
 90
        2
 40
-0.6
 41
30.0
 62
     5
 63
     7
 74
     0
 91
        4
 64
     7
 65
   257
 75
     1
175
     1
 42
1.0
 92
        0
 66
     7
 43
1.0
 76
     1
 77
     6
 78
     2
 67
     7
 79
     5
170
     0
171
     0
290
     0
174
     0
 93
       13
 44
0.0
173
     0
291
     1
 45
0.0
1001
ACAD
1000
AcDbSavedByObjectVersion
1070
     0
  0
VISUALSTYLE
  5
2E
102
{ACAD_REACTORS
330
2A
102
}
330
2A
100
AcDbVisualStyle
  2
GouraudWithEdges
 70
     3
 71
     2
 72
     2
 73
     1
 90
        2
 40
-0.6
 41
30.0
 62
     5
 63
     7
 74
     1
 91
        4
 64
     7
 65
   257
 75
     1
175
     1
 42
1.0
 92
        0
 66
   257
 43
1.0
 76
     1
 77
     6
 78
     2
 67
     7
 79
     5
170
     0
171
     0
290
     0
174
     0
 93
       13
 44
0.0
173
     0
291
     1
 45
0.0
1001
ACAD
1000
AcDbSavedByObjectVersion
1070
     0
  0
VISUALSTYLE
  5
38
102
{ACAD_REACTORS
330
2A
102
}
330
2A
100
AcDbVisualStyle
  2
Linepattern
 70
    14
 71
     2
 72
     2
 73
     0
 90
        0
 40
-0.6
 41
-30.0
 62
     5
 63
     7
 74
     1
 91
        4
 64
     7
 65
   257
 75
     7
175
     7
 42
1.0
 92
        8
 66
     7
 43
1.0
 76
     1
 77
     6
 78
     2
 67
     7
 79
     5
170
     0
171
     0
290
     0
174
     0
 93
        1
 44
0.0
173
     0
291
     1
 45
0.0
1001
ACAD
1000
AcDbSavedByObjectVersion
1070
     0
  0
VISUALSTYLE
  5
33
102
{ACAD_REACTORS
330
2A
102
}
330
2A
100
AcDbVisualStyle
  2
Realistic
 70
     8
 71
     2
 72
     2
 73
     0
 90
        0
 40
-0.6
 41
-30.0
 62
     5
 63
     7
 74
     1
 91
        0
 64
     7
 65
   257
 75
     1
175
     1
 42
1.0
 92
        8
 66
     8
 43
1.0
 76
     1
 77
     6
 78
     2
 67
     7
 79
     5
170
     0
171
     0
290
     0
174
     0
 93
       13
 44
0.0
173
     0
291
     0
 45
0.0
1001
ACAD
1000
AcDbSavedByObjectVersion
1070
     0
  0
VISUALSTYLE
  5
37
102
{ACAD_REACTORS
330
2A
102
}
330
2A
100
AcDbVisualStyle
  2
Thicken
 70
    13
 71
     2
 72
     2
 73
     0
 90
        0
 40
-0.6
 41
-30.0
 62
     5
 63
     7
 74
     1
 91
        4
 64
     7
 65
   257
 75
     1
175
     1
 42
1.0
 92
       12
 66
     7
 43
1.0
 76
     1
 77
     6
 78
     2
 67
     7
 79
     5
170
     0
171
     0
290
     0
174
     0
 93
        1
 44
0.0
173
     0
291
     1
 45
0.0
1001
ACAD
1000
AcDbSavedByObjectVersion
1070
     0
  0
ENDSEC
  0
EOF
