  0
SECTION
  2
HEADER
  9
$ACADVER
  1
AC1015
  9
$ACADMAINTVER
 70
     6
  9
$DWGCODEPAGE
  3
ANSI_1252
  9
$INSBASE
 10
0.0
 20
0.0
 30
0.0
  9
$EXTMIN
 10
1.000000000000000E+20
 20
1.000000000000000E+20
 30
1.000000000000000E+20
  9
$EXTMAX
 10
-1.000000000000000E+20
 20
-1.000000000000000E+20
 30
-1.000000000000000E+20
  9
$LIMMIN
 10
0.0
 20
0.0
  9
$LIMMAX
 10
12.0
 20
9.0
  9
$ORTHOMODE
 70
     0
  9
$REGENMODE
 70
     1
  9
$FILLMODE
 70
     1
  9
$QTEXTMODE
 70
     0
  9
$MIRRTEXT
 70
     1
  9
$LTSCALE
 40
1.0
  9
$ATTMODE
 70
     1
  9
$TEXTSIZE
 40
0.2
  9
$TRACEWID
 40
0.05
  9
$TEXTSTYLE
  7
Standard
  9
$CLAYER
  8
0
  9
$CELTYPE
  6
ByLayer
  9
$CECOLOR
 62
   256
  9
$CELTSCALE
 40
1.0
  9
$DISPSILH
 70
     0
  9
$DIMSCALE
 40
1.0
  9
$DIMASZ
 40
0.18
  9
$DIMEXO
 40
0.0625
  9
$DIMDLI
 40
0.38
  9
$DIMRND
 40
0.0
  9
$DIMDLE
 40
0.0
  9
$DIMEXE
 40
0.18
  9
$DIMTP
 40
0.0
  9
$DIMTM
 40
0.0
  9
$DIMTXT
 40
0.18
  9
$DIMCEN
 40
0.09
  9
$DIMTSZ
 40
0.0
  9
$DIMTOL
 70
     0
  9
$DIMLIM
 70
     0
  9
$DIMTIH
 70
     1
  9
$DIMTOH
 70
     1
  9
$DIMSE1
 70
     0
  9
$DIMSE2
 70
     0
  9
$DIMTAD
 70
     0
  9
$DIMZIN
 70
     0
  9
$DIMBLK
  1

  9
$DIMASO
 70
     1
  9
$DIMSHO
 70
     1
  9
$DIMPOST
  1

  9
$DIMAPOST
  1

  9
$DIMALT
 70
     0
  9
$DIMALTD
 70
     2
  9
$DIMALTF
 40
25.4
  9
$DIMLFAC
 40
1.0
  9
$DIMTOFL
 70
     0
  9
$DIMTVP
 40
0.0
  9
$DIMTIX
 70
     0
  9
$DIMSOXD
 70
     0
  9
$DIMSAH
 70
     0
  9
$DIMBLK1
  1

  9
$DIMBLK2
  1

  9
$DIMSTYLE
  2
Standard
  9
$DIMCLRD
 70
     0
  9
$DIMCLRE
 70
     0
  9
$DIMCLRT
 70
     0
  9
$DIMTFAC
 40
1.0
  9
$DIMGAP
 40
0.09
  9
$DIMJUST
 70
     0
  9
$DIMSD1
 70
     0
  9
$DIMSD2
 70
     0
  9
$DIMTOLJ
 70
     1
  9
$DIMTZIN
 70
     0
  9
$DIMALTZ
 70
     0
  9
$DIMALTTZ
 70
     0
  9
$DIMUPT
 70
     0
  9
$DIMDEC
 70
     4
  9
$DIMTDEC
 70
     4
  9
$DIMALTU
 70
     2
  9
$DIMALTTD
 70
     2
  9
$DIMTXSTY
  7
Standard
  9
$DIMAUNIT
 70
     0
  9
$DIMADEC
 70
     0
  9
$DIMALTRND
 40
0.0
  9
$DIMAZIN
 70
     0
  9
$DIMDSEP
 70
    46
  9
$DIMATFIT
 70
     3
  9
$DIMFRAC
 70
     0
  9
$DIMLDRBLK
  1

  9
$DIMLUNIT
 70
     2
  9
$DIMLWD
 70
    -2
  9
$DIMLWE
 70
    -2
  9
$DIMTMOVE
 70
     0
  9
$LUNITS
 70
     2
  9
$LUPREC
 70
     4
  9
$SKETCHINC
 40
0.1
  9
$FILLETRAD
 40
0.5
  9
$AUNITS
 70
     0
  9
$AUPREC
 70
     0
  9
$MENU
  1
.
  9
$ELEVATION
 40
0.0
  9
$PELEVATION
 40
0.0
  9
$THICKNESS
 40
0.0
  9
$LIMCHECK
 70
     0
  9
$CHAMFERA
 40
0.5
  9
$CHAMFERB
 40
0.5
  9
$CHAMFERC
 40
1.0
  9
$CHAMFERD
 40
0.0
  9
$SKPOLY
 70
     0
  9
$TDCREATE
 40
2456510.558799977
  9
$TDUCREATE
 40
2456510.162966643
  9
$TDUPDATE
 40
2456510.558799989
  9
$TDUUPDATE
 40
2456510.162966655
  9
$TDINDWG
 40
0.0000000116
  9
$TDUSRTIMER
 40
0.0000000116
  9
$USRTIMER
 70
     1
  9
$ANGBASE
 50
0.0
  9
$ANGDIR
 70
     0
  9
$PDMODE
 70
     0
  9
$PDSIZE
 40
0.0
  9
$PLINEWID
 40
0.0
  9
$SPLFRAME
 70
     0
  9
$SPLINETYPE
 70
     6
  9
$SPLINESEGS
 70
     8
  9
$HANDSEED
  5
571
  9
$SURFTAB1
 70
     6
  9
$SURFTAB2
 70
     6
  9
$SURFTYPE
 70
     6
  9
$SURFU
 70
     6
  9
$SURFV
 70
     6
  9
$UCSBASE
  2

  9
$UCSNAME
  2

  9
$UCSORG
 10
0.0
 20
0.0
 30
0.0
  9
$UCSXDIR
 10
1.0
 20
0.0
 30
0.0
  9
$UCSYDIR
 10
0.0
 20
1.0
 30
0.0
  9
$UCSORTHOREF
  2

  9
$UCSORTHOVIEW
 70
     0
  9
$UCSORGTOP
 10
0.0
 20
0.0
 30
0.0
  9
$UCSORGBOTTOM
 10
0.0
 20
0.0
 30
0.0
  9
$UCSORGLEFT
 10
0.0
 20
0.0
 30
0.0
  9
$UCSORGRIGHT
 10
0.0
 20
0.0
 30
0.0
  9
$UCSORGFRONT
 10
0.0
 20
0.0
 30
0.0
  9
$UCSORGBACK
 10
0.0
 20
0.0
 30
0.0
  9
$PUCSBASE
  2

  9
$PUCSNAME
  2

  9
$PUCSORG
 10
0.0
 20
0.0
 30
0.0
  9
$PUCSXDIR
 10
1.0
 20
0.0
 30
0.0
  9
$PUCSYDIR
 10
0.0
 20
1.0
 30
0.0
  9
$PUCSORTHOREF
  2

  9
$PUCSORTHOVIEW
 70
     0
  9
$PUCSORGTOP
 10
0.0
 20
0.0
 30
0.0
  9
$PUCSORGBOTTOM
 10
0.0
 20
0.0
 30
0.0
  9
$PUCSORGLEFT
 10
0.0
 20
0.0
 30
0.0
  9
$PUCSORGRIGHT
 10
0.0
 20
0.0
 30
0.0
  9
$PUCSORGFRONT
 10
0.0
 20
0.0
 30
0.0
  9
$PUCSORGBACK
 10
0.0
 20
0.0
 30
0.0
  9
$USERI1
 70
     0
  9
$USERI2
 70
     0
  9
$USERI3
 70
     0
  9
$USERI4
 70
     0
  9
$USERI5
 70
     0
  9
$USERR1
 40
0.0
  9
$USERR2
 40
0.0
  9
$USERR3
 40
0.0
  9
$USERR4
 40
0.0
  9
$USERR5
 40
0.0
  9
$WORLDVIEW
 70
     1
  9
$SHADEDGE
 70
     3
  9
$SHADEDIF
 70
    70
  9
$TILEMODE
 70
     1
  9
$MAXACTVP
 70
    64
  9
$PINSBASE
 10
0.0
 20
0.0
 30
0.0
  9
$PLIMCHECK
 70
     0
  9
$PEXTMIN
 10
1.000000000000000E+20
 20
1.000000000000000E+20
 30
1.000000000000000E+20
  9
$PEXTMAX
 10
-1.000000000000000E+20
 20
-1.000000000000000E+20
 30
-1.000000000000000E+20
  9
$PLIMMIN
 10
0.0
 20
0.0
  9
$PLIMMAX
 10
12.0
 20
9.0
  9
$UNITMODE
 70
     0
  9
$VISRETAIN
 70
     1
  9
$PLINEGEN
 70
     0
  9
$PSLTSCALE
 70
     1
  9
$TREEDEPTH
 70
  3020
  9
$CMLSTYLE
  2
Standard
  9
$CMLJUST
 70
     0
  9
$CMLSCALE
 40
1.0
  9
$PROXYGRAPHICS
 70
     1
  9
$MEASUREMENT
 70
     0
  9
$CELWEIGHT
370
    -1
  9
$ENDCAPS
280
     0
  9
$JOINSTYLE
280
     0
  9
$LWDISPLAY
290
     1
  9
$INSUNITS
 70
     1
  9
$HYPERLINKBASE
  1

  9
$STYLESHEET
  1

  9
$XEDIT
290
     1
  9
$CEPSNTYPE
380
     0
  9
$PSTYLEMODE
290
     1
  9
$FINGERPRINTGUID
  2
{6897B904-89BD-4DD2-B2E2-8F7457218BAC}
  9
$VERSIONGUID
  2
{FAEB1C32-E019-11D5-929B-00C0DF256EC4}
  9
$EXTNAMES
290
     1
  9
$PSVPSCALE
 40
0.0
  9
$OLESTARTUP
290
     0
  0
ENDSEC
  0
SECTION
  2
CLASSES
  0
CLASS
  1
ACDBDICTIONARYWDFLT
  2
AcDbDictionaryWithDefault
  3
ObjectDBX Classes
 90
        0
280
     0
281
     0
  0
CLASS
  1
VISUALSTYLE
  2
AcDbVisualStyle
  3
ObjectDBX Classes
 90
     4095
280
     0
281
     0
  0
CLASS
  1
ACDBPLACEHOLDER
  2
AcDbPlaceHolder
  3
ObjectDBX Classes
 90
        0
280
     0
281
     0
  0
CLASS
  1
LAYOUT
  2
AcDbLayout
  3
ObjectDBX Classes
 90
        0
280
     0
281
     0
  0
ENDSEC
  0
SECTION
  2
TABLES
  0
TABLE
  2
VPORT
  5
8
330
0
100
AcDbSymbolTable
 70
     1
  0
VPORT
  5
29
330
8
100
AcDbSymbolTableRecord
100
AcDbViewportTableRecord
  2
*Active
 70
     0
 10
0.0
 20
0.0
 11
1.0
 21
1.0
 12
0.0
 22
0.0
 13
0.0
 23
0.0
 14
0.5
 24
0.5
 15
0.5
 25
0.5
 16
0.0
 26
0.0
 36
1.0
 17
397.7569443450053
 27
706.6138887122354
 37
0.0
 40
1413.227777424471
 41
1.119570644033949
 42
50.0
 43
0.0
 44
0.0
 50
0.0
 51
0.0
 71
     0
 72
   100
 73
     1
 74
     3
 75
     0
 76
     0
 77
     0
 78
     0
281
     0
 65
     1
110
0.0
120
0.0
130
0.0
111
1.0
121
0.0
131
0.0
112
0.0
122
1.0
132
0.0
 79
     0
146
0.0
  0
ENDTAB
  0
TABLE
  2
LTYPE
  5
5
330
0
100
AcDbSymbolTable
 70
     1
  0
LTYPE
  5
14
330
5
100
AcDbSymbolTableRecord
100
AcDbLinetypeTableRecord
  2
ByBlock
 70
     0
  3

 72
    65
 73
     0
 40
0.0
  0
LTYPE
  5
15
330
5
100
AcDbSymbolTableRecord
100
AcDbLinetypeTableRecord
  2
ByLayer
 70
     0
  3

 72
    65
 73
     0
 40
0.0
  0
LTYPE
  5
16
330
5
100
AcDbSymbolTableRecord
100
AcDbLinetypeTableRecord
  2
Continuous
 70
     0
  3
Solid line
 72
    65
 73
     0
 40
0.0
  0
ENDTAB
  0
TABLE
  2
LAYER
  5
2
330
0
100
AcDbSymbolTable
 70
     2
  0
LAYER
  5
10
330
2
100
AcDbSymbolTableRecord
100
AcDbLayerTableRecord
  2
0
 70
     0
 62
     7
  6
Continuous
370
    -3
390
F
  0
LAYER
  5
3B
330
2
100
AcDbSymbolTableRecord
100
AcDbLayerTableRecord
  2
Layer 1
 70
     0
 62
     7
  6
Continuous
370
    -3
390
F
  0
ENDTAB
  0
TABLE
  2
STYLE
  5
3
330
0
100
AcDbSymbolTable
 70
     1
  0
STYLE
  5
11
330
3
100
AcDbSymbolTableRecord
100
AcDbTextStyleTableRecord
  2
Standard
 70
     0
 40
0.0
 41
1.0
 50
0.0
 71
     0
 42
0.2
  3
txt
  4

  0
ENDTAB
  0
TABLE
  2
VIEW
  5
6
330
0
100
AcDbSymbolTable
 70
     0
  0
ENDTAB
  0
TABLE
  2
UCS
  5
7
330
0
100
AcDbSymbolTable
 70
     0
  0
ENDTAB
  0
TABLE
  2
APPID
  5
9
330
0
100
AcDbSymbolTable
 70
     1
  0
APPID
  5
12
330
9
100
AcDbSymbolTableRecord
100
AcDbRegAppTableRecord
  2
ACAD
 70
     0
  0
ENDTAB
  0
TABLE
  2
DIMSTYLE
  5
A
330
0
100
AcDbSymbolTable
 70
     1
100
AcDbDimStyleTable
  0
DIMSTYLE
105
27
330
A
100
AcDbSymbolTableRecord
100
AcDbDimStyleTableRecord
  2
Standard
 70
     0
340
11
  0
ENDTAB
  0
TABLE
  2
BLOCK_RECORD
  5
1
330
0
100
AcDbSymbolTable
 70
     3
  0
BLOCK_RECORD
  5
1F
330
1
100
AcDbSymbolTableRecord
100
AcDbBlockTableRecord
  2
*Model_Space
340
22
  0
BLOCK_RECORD
  5
1B
330
1
100
AcDbSymbolTableRecord
100
AcDbBlockTableRecord
  2
*Paper_Space
340
1E
  0
BLOCK_RECORD
  5
23
330
1
100
AcDbSymbolTableRecord
100
AcDbBlockTableRecord
  2
*Paper_Space0
340
26
  0
BLOCK_RECORD
  5
3C
330
1
100
AcDbSymbolTableRecord
100
AcDbBlockTableRecord
  2
block 2
340
0
102
{BLKREFS
331
3D
102
}
  0
BLOCK_RECORD
  5
55D
330
1
100
AcDbSymbolTableRecord
100
AcDbBlockTableRecord
  2
block 3
340
0
102
{BLKREFS
331
55E
102
}
  0
ENDTAB
  0
ENDSEC
  0
SECTION
  2
BLOCKS
  0
BLOCK
  5
20
330
1F
100
AcDbEntity
  8
0
100
AcDbBlockBegin
  2
*Model_Space
 70
     0
 71
     0
 10
0.0
 20
0.0
 30
0.0
  3
*Model_Space
  1

  0
ENDBLK
  5
21
330
1F
100
AcDbEntity
  8
0
100
AcDbBlockEnd
  0
BLOCK
  5
1C
330
1B
100
AcDbEntity
 67
     1
  8
0
100
AcDbBlockBegin
  2
*Paper_Space
 70
     0
 71
     0
 10
0.0
 20
0.0
 30
0.0
  3
*Paper_Space
  1

  0
ENDBLK
  5
1D
330
1B
100
AcDbEntity
 67
     1
  8
0
100
AcDbBlockEnd
  0
BLOCK
  5
24
330
23
100
AcDbEntity
  8
0
100
AcDbBlockBegin
  2
*Paper_Space0
 70
     0
 71
     0
 10
0.0
 20
0.0
 30
0.0
  3
*Paper_Space0
  1

  0
ENDBLK
  5
25
330
23
100
AcDbEntity
  8
0
100
AcDbBlockEnd
  0
BLOCK
  5
3E
330
3C
100
AcDbEntity
  8
0
100
AcDbBlockBegin
  2
block 2
 70
     0
 71
     0
 10
0.0
 20
0.0
 30
0.0
  3
block 2
  1

  0
SPLINE
  5
40
330
3C
100
AcDbEntity
  8
Layer 1
 62
     7
370
    15
100
AcDbSpline
210
0.0
220
0.0
230
1.0
 70
     8
 71
     3
 72
     8
 73
     4
 74
     0
 42
0.0000000001
 43
0.0000000001
 40
0.0
 40
0.0
 40
0.0
 40
0.0
 40
1.0
 40
1.0
 40
1.0
 40
1.0
 10
455.6913925727091
 20
159.1082898907785
 30
0.0
 10
462.9987846064726
 20
159.3101724862141
 30
0.0
 10
470.3054876211389
 20
159.5113660625527
 30
0.0
 10
477.7193331053966
 20
159.7173827725707
 30
0.0
  0
SPLINE
  5
41
330
3C
100
AcDbEntity
  8
Layer 1
 62
     7
370
    15
100
AcDbSpline
210
0.0
220
0.0
230
1.0
 70
     8
 71
     3
 72
     8
 73
     4
 74
     0
 42
0.0000000001
 43
0.0000000001
 40
0.0
 40
0.0
 40
0.0
 40
0.0
 40
1.0
 40
1.0
 40
1.0
 40
1.0
 10
477.7193331053966
 20
159.7173827725707
 30
0.0
 10
485.1631509203759
 20
159.9227104634915
 30
0.0
 10
492.714455714495
 20
160.1307942308006
 30
0.0
 10
500.3446531952264
 20
160.3416340744979
 30
0.0
  0
SPLINE
  5
42
330
3C
100
AcDbEntity
  8
Layer 1
 62
     7
370
    15
100
AcDbSpline
210
0.0
220
0.0
230
1.0
 70
     8
 71
     3
 72
     8
 73
     4
 74
     0
 42
0.0000000001
 43
0.0000000001
 40
0.0
 40
0.0
 40
0.0
 40
0.0
 40
1.0
 40
1.0
 40
1.0
 40
1.0
 10
500.3446531952264
 20
160.3416340744979
 30
0.0
 10
507.8067300162775
 20
160.5483398036129
 30
0.0
 10
515.3452879571012
 20
160.756423570922
 30
0.0
 10
522.9696287755077
 20
160.9665743955223
 30
0.0
  0
SPLINE
  5
43
330
3C
100
AcDbEntity
  8
Layer 1
 62
     7
370
    15
100
AcDbSpline
210
0.0
220
0.0
230
1.0
 70
     8
 71
     3
 72
     8
 73
     4
 74
     0
 42
0.0000000001
 43
0.0000000001
 40
0.0
 40
0.0
 40
0.0
 40
0.0
 40
1.0
 40
1.0
 40
1.0
 40
1.0
 10
522.9696287755077
 20
160.9665743955223
 30
0.0
 10
530.4292940297191
 20
161.1725911055402
 30
0.0
 10
537.9723305946736
 20
161.3806748728493
 30
0.0
 10
545.5949488653374
 20
161.5915147165466
 30
0.0
  0
SPLINE
  5
44
330
3C
100
AcDbEntity
  8
Layer 1
 62
     7
370
    15
100
AcDbSpline
210
0.0
220
0.0
230
1.0
 70
     8
 71
     3
 72
     8
 73
     4
 74
     0
 42
0.0000000001
 43
0.0000000001
 40
0.0
 40
0.0
 40
0.0
 40
0.0
 40
1.0
 40
1.0
 40
1.0
 40
1.0
 10
545.5949488653374
 20
161.5915147165466
 30
0.0
 10
553.0587482341311
 20
161.7975314265645
 30
0.0
 10
560.5990287226975
 20
162.0063042129707
 30
0.0
 10
568.2192354265215
 20
162.2171440566679
 30
0.0
  0
SPLINE
  5
45
330
3C
100
AcDbEntity
  8
Layer 1
 62
     7
370
    15
100
AcDbSpline
210
0.0
220
0.0
230
1.0
 70
     8
 71
     3
 72
     8
 73
     4
 74
     0
 42
0.0000000001
 43
0.0000000001
 40
0.0
 40
0.0
 40
0.0
 40
0.0
 40
1.0
 40
1.0
 40
1.0
 40
1.0
 10
568.2192354265215
 20
162.2171440566679
 30
0.0
 10
575.6871689098977
 20
162.4231607666859
 30
0.0
 10
583.2319280225948
 20
162.631244533995
 30
0.0
 10
590.8445555163514
 20
162.8413953585952
 30
0.0
  0
SPLINE
  5
46
330
3C
100
AcDbEntity
  8
Layer 1
 62
     7
370
    15
100
AcDbSpline
210
0.0
220
0.0
230
1.0
 70
     8
 71
     3
 72
     8
 73
     4
 74
     0
 42
0.0000000001
 43
0.0000000001
 40
0.0
 40
0.0
 40
0.0
 40
0.0
 40
1.0
 40
1.0
 40
1.0
 40
1.0
 10
590.8445555163514
 20
162.8413953585952
 30
0.0
 10
598.3124889997274
 20
163.0481010877102
 30
0.0
 10
605.8479463546145
 20
163.2561848550193
 30
0.0
 10
613.4698756061812
 20
163.4663356796195
 30
0.0
  0
SPLINE
  5
47
330
3C
100
AcDbEntity
  8
Layer 1
 62
     7
370
    15
100
AcDbSpline
210
0.0
220
0.0
230
1.0
 70
     8
 71
     3
 72
     8
 73
     4
 74
     0
 42
0.0000000001
 43
0.0000000001
 40
0.0
 40
0.0
 40
0.0
 40
0.0
 40
1.0
 40
1.0
 40
1.0
 40
1.0
 10
613.4698756061812
 20
163.4663356796195
 30
0.0
 10
620.9550345669835
 20
163.6737304278316
 30
0.0
 10
628.5245983671745
 20
163.8825032142377
 30
0.0
 10
636.0941621673654
 20
164.0919650197409
 30
0.0
  0
SPLINE
  5
48
330
3C
100
AcDbEntity
  8
Layer 1
 62
     7
370
    15
100
AcDbSpline
210
0.0
220
0.0
230
1.0
 70
     8
 71
     3
 72
     8
 73
     4
 74
     0
 42
0.0000000001
 43
0.0000000001
 40
0.0
 40
0.0
 40
0.0
 40
0.0
 40
1.0
 40
1.0
 40
1.0
 40
1.0
 10
156.0123548329587
 20
164.0919650197409
 30
0.0
 10
158.8383666595092
 20
164.0141058617743
 30
0.0
 10
161.6650675051567
 20
163.9355576847106
 30
0.0
 10
164.6733248828768
 20
163.8521863739675
 30
0.0
  0
SPLINE
  5
49
330
3C
100
AcDbEntity
  8
Layer 1
 62
     7
370
    15
100
AcDbSpline
210
0.0
220
0.0
230
1.0
 70
     8
 71
     3
 72
     8
 73
     4
 74
     0
 42
0.0000000001
 43
0.0000000001
 40
0.0
 40
0.0
 40
0.0
 40
0.0
 40
1.0
 40
1.0
 40
1.0
 40
1.0
 10
164.6733248828768
 20
163.8521863739675
 30
0.0
 10
167.526725218535
 20
163.7736381969038
 30
0.0
 10
170.5439398445168
 20
163.6902668861608
 30
0.0
 10
173.6877617295816
 20
163.6034504799325
 30
0.0
  0
SPLINE
  5
4A
330
3C
100
AcDbEntity
  8
Layer 1
 62
     7
370
    15
100
AcDbSpline
210
0.0
220
0.0
230
1.0
 70
     8
 71
     3
 72
     8
 73
     4
 74
     0
 42
0.0000000001
 43
0.0000000001
 40
0.0
 40
0.0
 40
0.0
 40
0.0
 40
1.0
 40
1.0
 40
1.0
 40
1.0
 10
173.6877617295816
 20
163.6034504799325
 30
0.0
 10
176.6934352856878
 20
163.5207681882865
 30
0.0
 10
179.8143472857756
 20
163.4339517820582
 30
0.0
 10
183.0561821373957
 20
163.3450683185388
 30
0.0
  0
SPLINE
  5
4B
330
3C
100
AcDbEntity
  8
Layer 1
 62
     7
370
    15
100
AcDbSpline
210
0.0
220
0.0
230
1.0
 70
     8
 71
     3
 72
     8
 73
     4
 74
     0
 42
0.0000000001
 43
0.0000000001
 40
0.0
 40
0.0
 40
0.0
 40
0.0
 40
1.0
 40
1.0
 40
1.0
 40
1.0
 10
183.0561821373957
 20
163.3450683185388
 30
0.0
 10
186.1894964812304
 20
163.2582519123104
 30
0.0
 10
189.4359822117556
 20
163.168679429694
 30
0.0
 10
192.7777248324479
 20
163.0763508706893
 30
0.0
  0
SPLINE
  5
4C
330
3C
100
AcDbEntity
  8
Layer 1
 62
     7
370
    15
100
AcDbSpline
210
0.0
220
0.0
230
1.0
 70
     8
 71
     3
 72
     8
 73
     4
 74
     0
 42
0.0000000001
 43
0.0000000001
 40
0.0
 40
0.0
 40
0.0
 40
0.0
 40
1.0
 40
1.0
 40
1.0
 40
1.0
 10
192.7777248324479
 20
163.0763508706893
 30
0.0
 10
196.0526326007264
 20
162.9854003498787
 30
0.0
 10
199.418835399364
 20
162.8923827717769
 30
0.0
 10
202.8529065790611
 20
162.797298136384
 30
0.0
  0
SPLINE
  5
4D
330
3C
100
AcDbEntity
  8
Layer 1
 62
     7
370
    15
100
AcDbSpline
210
0.0
220
0.0
230
1.0
 70
     8
 71
     3
 72
     8
 73
     4
 74
     0
 42
0.0000000001
 43
0.0000000001
 40
0.0
 40
0.0
 40
0.0
 40
0.0
 40
1.0
 40
1.0
 40
1.0
 40
1.0
 10
202.8529065790611
 20
162.797298136384
 30
0.0
 10
206.2719915933973
 20
162.7035915391852
 30
0.0
 10
209.7580837149216
 20
162.6071288655982
 30
0.0
 10
213.2817273772351
 20
162.5099771729142
 30
0.0
  0
SPLINE
  5
4E
330
3C
100
AcDbEntity
  8
Layer 1
 62
     7
370
    15
100
AcDbSpline
210
0.0
220
0.0
230
1.0
 70
     8
 71
     3
 72
     8
 73
     4
 74
     0
 42
0.0000000001
 43
0.0000000001
 40
0.0
 40
0.0
 40
0.0
 40
0.0
 40
1.0
 40
1.0
 40
1.0
 40
1.0
 10
213.2817273772351
 20
162.5099771729142
 30
0.0
 10
216.8472289496945
 20
162.411447442036
 30
0.0
 10
220.45097108204
 20
162.3115396729638
 30
0.0
 10
224.0638427174216
 20
162.2116319038915
 30
0.0
  0
SPLINE
  5
4F
330
3C
100
AcDbEntity
  8
Layer 1
 62
     7
370
    15
100
AcDbSpline
210
0.0
220
0.0
230
1.0
 70
     8
 71
     3
 72
     8
 73
     4
 74
     0
 42
0.0000000001
 43
0.0000000001
 40
0.0
 40
0.0
 40
0.0
 40
0.0
 40
1.0
 40
1.0
 40
1.0
 40
1.0
 10
224.0638427174216
 20
162.2116319038915
 30
0.0
 10
227.7745550645841
 20
162.1096570775281
 30
0.0
 10
231.4949136791055
 20
162.0063042129707
 30
0.0
 10
235.1992525996203
 20
161.9043293866073
 30
0.0
  0
SPLINE
  5
50
330
3C
100
AcDbEntity
  8
Layer 1
 62
     7
370
    15
100
AcDbSpline
210
0.0
220
0.0
230
1.0
 70
     8
 71
     3
 72
     8
 73
     4
 74
     0
 42
0.0000000001
 43
0.0000000001
 40
0.0
 40
0.0
 40
0.0
 40
0.0
 40
1.0
 40
1.0
 40
1.0
 40
1.0
 10
235.1992525996203
 20
161.9043293866073
 30
0.0
 10
239.0519028807752
 20
161.7975314265645
 30
0.0
 10
242.8878444488267
 20
161.6921115047159
 30
0.0
 10
246.6886460429286
 20
161.5873806019643
 30
0.0
  0
SPLINE
  5
51
330
3C
100
AcDbEntity
  8
Layer 1
 62
     7
370
    15
100
AcDbSpline
210
0.0
220
0.0
230
1.0
 70
     8
 71
     3
 72
     8
 73
     4
 74
     0
 42
0.0000000001
 43
0.0000000001
 40
0.0
 40
0.0
 40
0.0
 40
0.0
 40
1.0
 40
1.0
 40
1.0
 40
1.0
 10
246.6886460429286
 20
161.5873806019643
 30
0.0
 10
250.6780666148479
 20
161.4764485273392
 30
0.0
 10
254.6292466268809
 20
161.3675835100053
 30
0.0
 10
258.5316785377976
 20
161.2594075117685
 30
0.0
  0
SPLINE
  5
52
330
3C
100
AcDbEntity
  8
Layer 1
 62
     7
370
    15
100
AcDbSpline
210
0.0
220
0.0
230
1.0
 70
     8
 71
     3
 72
     8
 73
     4
 74
     0
 42
0.0000000001
 43
0.0000000001
 40
0.0
 40
0.0
 40
0.0
 40
0.0
 40
1.0
 40
1.0
 40
1.0
 40
1.0
 10
258.5316785377976
 20
161.2594075117685
 30
0.0
 10
262.6525295024792
 20
161.1457193607552
 30
0.0
 10
266.7192924680424
 20
161.0334092479361
 30
0.0
 10
270.7276610651306
 20
160.9224771733111
 30
0.0
  0
SPLINE
  5
53
330
3C
100
AcDbEntity
  8
Layer 1
 62
     7
370
    15
100
AcDbSpline
210
0.0
220
0.0
230
1.0
 70
     8
 71
     3
 72
     8
 73
     4
 74
     0
 42
0.0000000001
 43
0.0000000001
 40
0.0
 40
0.0
 40
0.0
 40
0.0
 40
1.0
 40
1.0
 40
1.0
 40
1.0
 10
270.7276610651306
 20
160.9224771733111
 30
0.0
 10
274.9758083079922
 20
160.8053439268126
 30
0.0
 10
279.1581542270854
 20
160.6895887185082
 30
0.0
 10
283.2774548987987
 20
160.576589586592
 30
0.0
  0
SPLINE
  5
54
330
3C
100
AcDbEntity
  8
Layer 1
 62
     7
370
    15
100
AcDbSpline
210
0.0
220
0.0
230
1.0
 70
     8
 71
     3
 72
     8
 73
     4
 74
     0
 42
0.0000000001
 43
0.0000000001
 40
0.0
 40
0.0
 40
0.0
 40
0.0
 40
1.0
 40
1.0
 40
1.0
 40
1.0
 10
283.2774548987987
 20
160.576589586592
 30
0.0
 10
287.6485920504837
 20
160.4546332064141
 30
0.0
 10
291.9482434708498
 20
160.3368109408186
 30
0.0
 10
296.1810600388019
 20
160.2196776943201
 30
0.0
  0
SPLINE
  5
55
330
3C
100
AcDbEntity
  8
Layer 1
 62
     7
370
    15
100
AcDbSpline
210
0.0
220
0.0
230
1.0
 70
     8
 71
     3
 72
     8
 73
     4
 74
     0
 42
0.0000000001
 43
0.0000000001
 40
0.0
 40
0.0
 40
0.0
 40
0.0
 40
1.0
 40
1.0
 40
1.0
 40
1.0
 10
296.1810600388019
 20
160.2196776943201
 30
0.0
 10
300.6707084751795
 20
160.0956542568511
 30
0.0
 10
305.0852538299787
 20
159.9730088575762
 30
0.0
 10
309.4377874660433
 20
159.8538085537866
 30
0.0
  0
SPLINE
  5
56
330
3C
100
AcDbEntity
  8
Layer 1
 62
     7
370
    15
100
AcDbSpline
210
0.0
220
0.0
230
1.0
 70
     8
 71
     3
 72
     8
 73
     4
 74
     0
 42
0.0000000001
 43
0.0000000001
 40
0.0
 40
0.0
 40
0.0
 40
0.0
 40
1.0
 40
1.0
 40
1.0
 40
1.0
 10
309.4377874660433
 20
159.8538085537866
 30
0.0
 10
314.0485310087275
 20
159.7263400208323
 30
0.0
 10
318.5895113678353
 20
159.6002495260722
 30
0.0
 10
323.0481539448456
 20
159.4776041267973
 30
0.0
  0
SPLINE
  5
57
330
3C
100
AcDbEntity
  8
Layer 1
 62
     7
370
    15
100
AcDbSpline
210
0.0
220
0.0
230
1.0
 70
     8
 71
     3
 72
     8
 73
     4
 74
     0
 42
0.0000000001
 43
0.0000000001
 40
0.0
 40
0.0
 40
0.0
 40
0.0
 40
1.0
 40
1.0
 40
1.0
 40
1.0
 10
323.0481539448456
 20
159.4776041267973
 30
0.0
 10
327.5598509923288
 20
159.3528916702312
 30
0.0
 10
331.9876599647462
 20
159.2302462709563
 30
0.0
 10
336.415124427615
 20
159.1082898907785
 30
0.0
  0
POLYLINE
  5
58
330
3C
100
AcDbEntity
  8
Layer 1
 62
     7
370
    15
100
AcDb2dPolyline
 66
     1
 10
0.0
 20
0.0
 30
0.0
  0
VERTEX
  5
59
330
58
100
AcDbEntity
  8
Layer 1
 62
     7
370
    15
100
AcDbVertex
100
AcDb2dVertex
 10
121.0534206511603
 20
390.5911457356856
 30
0.0
  0
VERTEX
  5
5A
330
58
100
AcDbEntity
  8
Layer 1
 62
     7
370
    15
100
AcDbVertex
100
AcDb2dVertex
 10
131.0536715709692
 20
390.5911457356856
 30
0.0
  0
SEQEND
  5
5B
330
58
100
AcDbEntity
  8
Layer 1
370
    15
  0
POLYLINE
  5
5C
330
3C
100
AcDbEntity
  8
Layer 1
 62
     7
370
    15
100
AcDb2dPolyline
 66
     1
 10
0.0
 20
0.0
 30
0.0
  0
VERTEX
  5
5D
330
5C
100
AcDbEntity
  8
Layer 1
 62
     7
370
    15
100
AcDbVertex
100
AcDb2dVertex
 10
131.0536715709692
 20
389.0911511614078
 30
0.0
  0
VERTEX
  5
5E
330
5C
100
AcDbEntity
  8
Layer 1
 62
     7
370
    15
100
AcDbVertex
100
AcDb2dVertex
 10
131.0536715709692
 20
390.5911457356856
 30
0.0
  0
SEQEND
  5
5F
330
5C
100
AcDbEntity
  8
Layer 1
370
    15
  0
POLYLINE
  5
60
330
3C
100
AcDbEntity
  8
Layer 1
 62
     7
370
    15
100
AcDb2dPolyline
 66
     1
 10
0.0
 20
0.0
 30
0.0
  0
VERTEX
  5
61
330
60
100
AcDbEntity
  8
Layer 1
 62
     7
370
    15
100
AcDbVertex
100
AcDb2dVertex
 10
121.0534206511603
 20
389.0911511614078
 30
0.0
  0
VERTEX
  5
62
330
60
100
AcDbEntity
  8
Layer 1
 62
     7
370
    15
100
AcDbVertex
100
AcDb2dVertex
 10
121.0534206511603
 20
390.5911457356856
 30
0.0
  0
SEQEND
  5
63
330
60
100
AcDbEntity
  8
Layer 1
370
    15
  0
POLYLINE
  5
64
330
3C
100
AcDbEntity
  8
Layer 1
 62
     7
370
    15
100
AcDb2dPolyline
 66
     1
 10
0.0
 20
0.0
 30
0.0
  0
VERTEX
  5
65
330
64
100
AcDbEntity
  8
Layer 1
 62
     7
370
    15
100
AcDbVertex
100
AcDb2dVertex
 10
121.0534206511603
 20
389.0911511614078
 30
0.0
  0
VERTEX
  5
66
330
64
100
AcDbEntity
  8
Layer 1
 62
     7
370
    15
100
AcDbVertex
100
AcDb2dVertex
 10
131.0536715709692
 20
389.0911511614078
 30
0.0
  0
SEQEND
  5
67
330
64
100
AcDbEntity
  8
Layer 1
370
    15
  0
POLYLINE
  5
68
330
3C
100
AcDbEntity
  8
Layer 1
 62
     7
370
    15
100
AcDb2dPolyline
 66
     1
 10
0.0
 20
0.0
 30
0.0
  0
VERTEX
  5
69
330
68
100
AcDbEntity
  8
Layer 1
 62
     7
370
    15
100
AcDbVertex
100
AcDb2dVertex
 10
671.0529240943896
 20
389.0911511614078
 30
0.0
  0
VERTEX
  5
6A
330
68
100
AcDbEntity
  8
Layer 1
 62
     7
370
    15
100
AcDbVertex
100
AcDb2dVertex
 10
671.0529240943896
 20
390.5911457356856
 30
0.0
  0
SEQEND
  5
6B
330
68
100
AcDbEntity
  8
Layer 1
370
    15
  0
POLYLINE
  5
6C
330
3C
100
AcDbEntity
  8
Layer 1
 62
     7
370
    15
100
AcDb2dPolyline
 66
     1
 10
0.0
 20
0.0
 30
0.0
  0
VERTEX
  5
6D
330
6C
100
AcDbEntity
  8
Layer 1
 62
     7
370
    15
100
AcDbVertex
100
AcDb2dVertex
 10
661.0528454293549
 20
389.0911511614078
 30
0.0
  0
VERTEX
  5
6E
330
6C
100
AcDbEntity
  8
Layer 1
 62
     7
370
    15
100
AcDbVertex
100
AcDb2dVertex
 10
661.0528454293549
 20
390.5911457356856
 30
0.0
  0
SEQEND
  5
6F
330
6C
100
AcDbEntity
  8
Layer 1
370
    15
  0
POLYLINE
  5
70
330
3C
100
AcDbEntity
  8
Layer 1
 62
     7
370
    15
100
AcDb2dPolyline
 66
     1
 10
0.0
 20
0.0
 30
0.0
  0
VERTEX
  5
71
330
70
100
AcDbEntity
  8
Layer 1
 62
     7
370
    15
100
AcDbVertex
100
AcDb2dVertex
 10
661.0528454293549
 20
390.5911457356856
 30
0.0
  0
VERTEX
  5
72
330
70
100
AcDbEntity
  8
Layer 1
 62
     7
370
    15
100
AcDbVertex
100
AcDb2dVertex
 10
671.0529240943896
 20
390.5911457356856
 30
0.0
  0
SEQEND
  5
73
330
70
100
AcDbEntity
  8
Layer 1
370
    15
  0
POLYLINE
  5
74
330
3C
100
AcDbEntity
  8
Layer 1
 62
     7
370
    15
100
AcDb2dPolyline
 66
     1
 10
0.0
 20
0.0
 30
0.0
  0
VERTEX
  5
75
330
74
100
AcDbEntity
  8
Layer 1
 62
     7
370
    15
100
AcDbVertex
100
AcDb2dVertex
 10
661.0528454293549
 20
389.0911511614078
 30
0.0
  0
VERTEX
  5
76
330
74
100
AcDbEntity
  8
Layer 1
 62
     7
370
    15
100
AcDbVertex
100
AcDb2dVertex
 10
671.0529240943896
 20
389.0911511614078
 30
0.0
  0
SEQEND
  5
77
330
74
100
AcDbEntity
  8
Layer 1
370
    15
  0
POLYLINE
  5
78
330
3C
100
AcDbEntity
  8
Layer 1
 62
     7
370
    15
100
AcDb2dPolyline
 66
     1
 10
0.0
 20
0.0
 30
0.0
  0
VERTEX
  5
79
330
78
100
AcDbEntity
  8
Layer 1
 62
     7
370
    15
100
AcDbVertex
100
AcDb2dVertex
 10
131.0536715709692
 20
390.5911457356856
 30
0.0
  0
VERTEX
  5
7A
330
78
100
AcDbEntity
  8
Layer 1
 62
     7
370
    15
100
AcDbVertex
100
AcDb2dVertex
 10
661.0528454293549
 20
390.5911457356856
 30
0.0
  0
SEQEND
  5
7B
330
78
100
AcDbEntity
  8
Layer 1
370
    15
  0
POLYLINE
  5
7C
330
3C
100
AcDbEntity
  8
Layer 1
 62
     7
370
    15
100
AcDb2dPolyline
 66
     1
 10
0.0
 20
0.0
 30
0.0
  0
VERTEX
  5
7D
330
7C
100
AcDbEntity
  8
Layer 1
 62
     7
370
    15
100
AcDbVertex
100
AcDb2dVertex
 10
131.0536715709692
 20
389.0911511614078
 30
0.0
  0
VERTEX
  5
7E
330
7C
100
AcDbEntity
  8
Layer 1
 62
     7
370
    15
100
AcDbVertex
100
AcDb2dVertex
 10
661.0528454293549
 20
389.0911511614078
 30
0.0
  0
SEQEND
  5
7F
330
7C
100
AcDbEntity
  8
Layer 1
370
    15
  0
SPLINE
  5
80
330
3C
100
AcDbEntity
  8
Layer 1
 62
     7
370
    15
100
AcDbSpline
210
0.0
220
0.0
230
1.0
 70
     8
 71
     3
 72
     8
 73
     4
 74
     0
 42
0.0000000001
 43
0.0000000001
 40
0.0
 40
0.0
 40
0.0
 40
0.0
 40
1.0
 40
1.0
 40
1.0
 40
1.0
 10
636.0741806135509
 20
164.0912760006439
 30
0.0
 10
642.4172904209929
 20
164.1029893252937
 30
0.0
 10
647.5525497513063
 20
169.2478949229658
 30
0.0
 10
647.5525497513063
 20
175.5916937495049
 30
0.0
  0
POLYLINE
  5
81
330
3C
100
AcDbEntity
  8
Layer 1
 62
     7
370
    15
100
AcDb2dPolyline
 66
     1
 10
0.0
 20
0.0
 30
0.0
  0
VERTEX
  5
82
330
81
100
AcDbEntity
  8
Layer 1
 62
     7
370
    15
100
AcDbVertex
100
AcDb2dVertex
 10
636.0741806135509
 20
164.0912760006439
 30
0.0
  0
VERTEX
  5
83
330
81
100
AcDbEntity
  8
Layer 1
 62
     7
370
    15
100
AcDbVertex
100
AcDb2dVertex
 10
636.0741806135509
 20
164.0912760006439
 30
0.0
  0
SEQEND
  5
84
330
81
100
AcDbEntity
  8
Layer 1
370
    15
  0
POLYLINE
  5
85
330
3C
100
AcDbEntity
  8
Layer 1
 62
     7
370
    15
100
AcDb2dPolyline
 66
     1
 10
0.0
 20
0.0
 30
0.0
  0
VERTEX
  5
86
330
85
100
AcDbEntity
  8
Layer 1
 62
     7
370
    15
100
AcDbVertex
100
AcDb2dVertex
 10
636.0741806135509
 20
164.0912760006439
 30
0.0
  0
VERTEX
  5
87
330
85
100
AcDbEntity
  8
Layer 1
 62
     7
370
    15
100
AcDbVertex
100
AcDb2dVertex
 10
636.0741806135509
 20
164.0912760006439
 30
0.0
  0
SEQEND
  5
88
330
85
100
AcDbEntity
  8
Layer 1
370
    15
  0
SPLINE
  5
89
330
3C
100
AcDbEntity
  8
Layer 1
 62
     7
370
    15
100
AcDbSpline
210
0.0
220
0.0
230
1.0
 70
    24
 71
     3
 72
     8
 73
     4
 74
     0
 42
0.0000000001
 43
0.0000000001
 40
0.0
 40
0.0
 40
0.0
 40
0.0
 40
1.0
 40
1.0
 40
1.0
 40
1.0
 10
156.0535237240074
 20
164.0912760006439
 30
0.0
 10
156.0502508832965
 20
164.0912760006439
 30
0.0
 10
156.047322552134
 20
164.0912760006439
 30
0.0
 10
156.0438774566488
 20
164.0912760006439
 30
0.0
  0
SPLINE
  5
8A
330
3C
100
AcDbEntity
  8
Layer 1
 62
     7
370
    15
100
AcDbSpline
210
0.0
220
0.0
230
1.0
 70
    24
 71
     3
 72
     8
 73
     4
 74
     0
 42
0.0000000001
 43
0.0000000001
 40
0.0
 40
0.0
 40
0.0
 40
0.0
 40
1.0
 40
1.0
 40
1.0
 40
1.0
 10
156.0438774566488
 20
164.0912760006439
 30
0.0
 10
156.0406046159378
 20
164.0912760006439
 30
0.0
 10
156.0373317752268
 20
164.0912760006439
 30
0.0
 10
156.0338866797415
 20
164.0912760006439
 30
0.0
  0
SPLINE
  5
8B
330
3C
100
AcDbEntity
  8
Layer 1
 62
     7
370
    15
100
AcDbSpline
210
0.0
220
0.0
230
1.0
 70
     8
 71
     3
 72
     8
 73
     4
 74
     0
 42
0.0000000001
 43
0.0000000001
 40
0.0
 40
0.0
 40
0.0
 40
0.0
 40
1.0
 40
1.0
 40
1.0
 40
1.0
 10
144.5537949942435
 20
175.5916937495049
 30
0.0
 10
144.5537949942435
 20
169.2478949229658
 30
0.0
 10
149.6893988341054
 20
164.1029893252937
 30
0.0
 10
156.0326808963217
 20
164.0912760006439
 30
0.0
  0
POLYLINE
  5
8C
330
3C
100
AcDbEntity
  8
Layer 1
 62
     7
370
    15
100
AcDb2dPolyline
 66
     1
 10
0.0
 20
0.0
 30
0.0
  0
VERTEX
  5
8D
330
8C
100
AcDbEntity
  8
Layer 1
 62
     7
370
    15
100
AcDbVertex
100
AcDb2dVertex
 10
144.5537949942435
 20
175.5916937495049
 30
0.0
  0
VERTEX
  5
8E
330
8C
100
AcDbEntity
  8
Layer 1
 62
     7
370
    15
100
AcDbVertex
100
AcDb2dVertex
 10
144.5537949942435
 20
389.0911511614078
 30
0.0
  0
SEQEND
  5
8F
330
8C
100
AcDbEntity
  8
Layer 1
370
    15
  0
POLYLINE
  5
90
330
3C
100
AcDbEntity
  8
Layer 1
 62
     7
370
    15
100
AcDb2dPolyline
 66
     1
 10
0.0
 20
0.0
 30
0.0
  0
VERTEX
  5
91
330
90
100
AcDbEntity
  8
Layer 1
 62
     7
370
    15
100
AcDbVertex
100
AcDb2dVertex
 10
647.5525497513063
 20
175.5916937495049
 30
0.0
  0
VERTEX
  5
92
330
90
100
AcDbEntity
  8
Layer 1
 62
     7
370
    15
100
AcDbVertex
100
AcDb2dVertex
 10
647.5525497513063
 20
389.0911511614078
 30
0.0
  0
SEQEND
  5
93
330
90
100
AcDbEntity
  8
Layer 1
370
    15
  0
POLYLINE
  5
94
330
3C
100
AcDbEntity
  8
Layer 1
 62
     7
370
    15
100
AcDb2dPolyline
 66
     1
 10
0.0
 20
0.0
 30
0.0
  0
VERTEX
  5
95
330
94
100
AcDbEntity
  8
Layer 1
 62
     7
370
    15
100
AcDbVertex
100
AcDb2dVertex
 10
636.0641898366437
 20
164.0912760006439
 30
0.0
  0
VERTEX
  5
96
330
94
100
AcDbEntity
  8
Layer 1
 62
     7
370
    15
100
AcDbVertex
100
AcDb2dVertex
 10
589.9036999393296
 20
162.8434624158864
 30
0.0
  0
VERTEX
  5
97
330
94
100
AcDbEntity
  8
Layer 1
 62
     7
370
    15
100
AcDbVertex
100
AcDb2dVertex
 10
543.6016166175718
 20
161.5915147165466
 30
0.0
  0
VERTEX
  5
98
330
94
100
AcDbEntity
  8
Layer 1
 62
     7
370
    15
100
AcDbVertex
100
AcDb2dVertex
 10
451.5517658376329
 20
159.1027777380021
 30
0.0
  0
SEQEND
  5
99
330
94
100
AcDbEntity
  8
Layer 1
370
    15
  0
SPLINE
  5
9A
330
3C
100
AcDbEntity
  8
Layer 1
 62
     7
370
    15
100
AcDbSpline
210
0.0
220
0.0
230
1.0
 70
     8
 71
     3
 72
     8
 73
     4
 74
     0
 42
0.0000000001
 43
0.0000000001
 40
0.0
 40
0.0
 40
0.0
 40
0.0
 40
1.0
 40
1.0
 40
1.0
 40
1.0
 10
442.0532930752506
 20
159.1076008716814
 30
0.0
 10
442.9359265385716
 20
159.1076008716814
 30
0.0
 10
443.8051241295001
 20
159.1062228334874
 30
0.0
 10
444.6619193766817
 20
159.1055338143903
 30
0.0
  0
SPLINE
  5
9B
330
3C
100
AcDbEntity
  8
Layer 1
 62
     7
370
    15
100
AcDbSpline
210
0.0
220
0.0
230
1.0
 70
     8
 71
     3
 72
     8
 73
     4
 74
     0
 42
0.0000000001
 43
0.0000000001
 40
0.0
 40
0.0
 40
0.0
 40
0.0
 40
1.0
 40
1.0
 40
1.0
 40
1.0
 10
444.6619193766817
 20
159.1055338143903
 30
0.0
 10
445.0904892550469
 20
159.1055338143903
 30
0.0
 10
445.5163030570237
 20
159.1048447952932
 30
0.0
 10
445.9383272539668
 20
159.1048447952932
 30
0.0
  0
SPLINE
  5
9C
330
3C
100
AcDbEntity
  8
Layer 1
 62
     7
370
    15
100
AcDbSpline
210
0.0
220
0.0
230
1.0
 70
     8
 71
     3
 72
     8
 73
     4
 74
     0
 42
0.0000000001
 43
0.0000000001
 40
0.0
 40
0.0
 40
0.0
 40
0.0
 40
1.0
 40
1.0
 40
1.0
 40
1.0
 10
445.9383272539668
 20
159.1048447952932
 30
0.0
 10
446.3606959604585
 20
159.1048447952932
 30
0.0
 10
446.775140947334
 20
159.1048447952932
 30
0.0
 10
447.1792506477538
 20
159.1041557761962
 30
0.0
  0
SPLINE
  5
9D
330
3C
100
AcDbEntity
  8
Layer 1
 62
     7
370
    15
100
AcDbSpline
210
0.0
220
0.0
230
1.0
 70
     8
 71
     3
 72
     8
 73
     4
 74
     0
 42
0.0000000001
 43
0.0000000001
 40
0.0
 40
0.0
 40
0.0
 40
0.0
 40
1.0
 40
1.0
 40
1.0
 40
1.0
 10
447.1792506477538
 20
159.1041557761962
 30
0.0
 10
447.987814558142
 20
159.1041557761962
 30
0.0
 10
448.7591714372894
 20
159.1041557761962
 30
0.0
 10
449.491943247002
 20
159.1027777380021
 30
0.0
  0
SPLINE
  5
9E
330
3C
100
AcDbEntity
  8
Layer 1
 62
     7
370
    15
100
AcDbSpline
210
0.0
220
0.0
230
1.0
 70
    24
 71
     3
 72
     8
 73
     4
 74
     0
 42
0.0000000001
 43
0.0000000001
 40
0.0
 40
0.0
 40
0.0
 40
0.0
 40
1.0
 40
1.0
 40
1.0
 40
1.0
 10
449.491943247002
 20
159.1027777380021
 30
0.0
 10
449.8588459161812
 20
159.1027777380021
 30
0.0
 10
450.2174803561957
 20
159.1027777380021
 30
0.0
 10
450.5619899047206
 20
159.1027777380021
 30
0.0
  0
SPLINE
  5
9F
330
3C
100
AcDbEntity
  8
Layer 1
 62
     7
370
    15
100
AcDbSpline
210
0.0
220
0.0
230
1.0
 70
    24
 71
     3
 72
     8
 73
     4
 74
     0
 42
0.0000000001
 43
0.0000000001
 40
0.0
 40
0.0
 40
0.0
 40
0.0
 40
1.0
 40
1.0
 40
1.0
 40
1.0
 10
450.5619899047206
 20
159.1027777380021
 30
0.0
 10
450.9054659246
 20
159.1027777380021
 30
0.0
 10
451.2358505816355
 20
159.1027777380021
 30
0.0
 10
451.5517658376329
 20
159.1027777380021
 30
0.0
  0
POLYLINE
  5
A0
330
3C
100
AcDbEntity
  8
Layer 1
 62
     7
370
    15
100
AcDb2dPolyline
 66
     1
 10
0.0
 20
0.0
 30
0.0
  0
VERTEX
  5
A1
330
A0
100
AcDbEntity
  8
Layer 1
 62
     7
370
    15
100
AcDbVertex
100
AcDb2dVertex
 10
350.0532239250735
 20
159.1076008716814
 30
0.0
  0
VERTEX
  5
A2
330
A0
100
AcDbEntity
  8
Layer 1
 62
     7
370
    15
100
AcDbVertex
100
AcDb2dVertex
 10
442.0532930752506
 20
159.1076008716814
 30
0.0
  0
SEQEND
  5
A3
330
A0
100
AcDbEntity
  8
Layer 1
370
    15
  0
SPLINE
  5
A4
330
3C
100
AcDbEntity
  8
Layer 1
 62
     7
370
    15
100
AcDbSpline
210
0.0
220
0.0
230
1.0
 70
    24
 71
     3
 72
     8
 73
     4
 74
     0
 42
0.0000000001
 43
0.0000000001
 40
0.0
 40
0.0
 40
0.0
 40
0.0
 40
1.0
 40
1.0
 40
1.0
 40
1.0
 10
340.5545789079169
 20
159.1027777380021
 30
0.0
 10
341.187270693783
 20
159.1027777380021
 30
0.0
 10
341.8699163641853
 20
159.1027777380021
 30
0.0
 10
342.6011378809296
 20
159.1027777380021
 30
0.0
  0
SPLINE
  5
A5
330
3C
100
AcDbEntity
  8
Layer 1
 62
     7
370
    15
100
AcDbSpline
210
0.0
220
0.0
230
1.0
 70
     8
 71
     3
 72
     8
 73
     4
 74
     0
 42
0.0000000001
 43
0.0000000001
 40
0.0
 40
0.0
 40
0.0
 40
0.0
 40
1.0
 40
1.0
 40
1.0
 40
1.0
 10
342.6011378809296
 20
159.1027777380021
 30
0.0
 10
342.9671792762374
 20
159.1027777380021
 30
0.0
 10
343.3447617414208
 20
159.1041557761962
 30
0.0
 10
343.7349188051253
 20
159.1041557761962
 30
0.0
  0
SPLINE
  5
A6
330
3C
100
AcDbEntity
  8
Layer 1
 62
     7
370
    15
100
AcDbSpline
210
0.0
220
0.0
230
1.0
 70
    24
 71
     3
 72
     8
 73
     4
 74
     0
 42
0.0000000001
 43
0.0000000001
 40
0.0
 40
0.0
 40
0.0
 40
0.0
 40
1.0
 40
1.0
 40
1.0
 40
1.0
 10
343.7349188051253
 20
159.1041557761962
 30
0.0
 10
344.1255926331526
 20
159.1041557761962
 30
0.0
 10
344.5243624355703
 20
159.1041557761962
 30
0.0
 10
344.9288166455386
 20
159.1041557761962
 30
0.0
  0
SPLINE
  5
A7
330
3C
100
AcDbEntity
  8
Layer 1
 62
     7
370
    15
100
AcDbSpline
210
0.0
220
0.0
230
1.0
 70
     8
 71
     3
 72
     8
 73
     4
 74
     0
 42
0.0000000001
 43
0.0000000001
 40
0.0
 40
0.0
 40
0.0
 40
0.0
 40
1.0
 40
1.0
 40
1.0
 40
1.0
 10
344.9288166455386
 20
159.1041557761962
 30
0.0
 10
345.7373805559268
 20
159.1048447952932
 30
0.0
 10
346.570921408583
 20
159.1048447952932
 30
0.0
 10
347.4294392035072
 20
159.1055338143903
 30
0.0
  0
SPLINE
  5
A8
330
3C
100
AcDbEntity
  8
Layer 1
 62
     7
370
    15
100
AcDbSpline
210
0.0
220
0.0
230
1.0
 70
     8
 71
     3
 72
     8
 73
     4
 74
     0
 42
0.0000000001
 43
0.0000000001
 40
0.0
 40
0.0
 40
0.0
 40
0.0
 40
1.0
 40
1.0
 40
1.0
 40
1.0
 10
347.4294392035072
 20
159.1055338143903
 30
0.0
 10
347.8586981009694
 20
159.1055338143903
 30
0.0
 10
348.2962252275961
 20
159.1062228334874
 30
0.0
 10
348.7342691185456
 20
159.1062228334874
 30
0.0
  0
SPLINE
  5
A9
330
3C
100
AcDbEntity
  8
Layer 1
 62
     7
370
    15
100
AcDbSpline
210
0.0
220
0.0
230
1.0
 70
     8
 71
     3
 72
     8
 73
     4
 74
     0
 42
0.0000000001
 43
0.0000000001
 40
0.0
 40
0.0
 40
0.0
 40
0.0
 40
1.0
 40
1.0
 40
1.0
 40
1.0
 10
348.7342691185456
 20
159.1062228334874
 30
0.0
 10
349.1723130094952
 20
159.1076008716814
 30
0.0
 10
349.6124239577358
 20
159.1076008716814
 30
0.0
 10
350.0532239250735
 20
159.1076008716814
 30
0.0
  0
POLYLINE
  5
AA
330
3C
100
AcDbEntity
  8
Layer 1
 62
     7
370
    15
100
AcDb2dPolyline
 66
     1
 10
0.0
 20
0.0
 30
0.0
  0
VERTEX
  5
AB
330
AA
100
AcDbEntity
  8
Layer 1
 62
     7
370
    15
100
AcDbVertex
100
AcDb2dVertex
 10
156.0426716732289
 20
164.0912760006439
 30
0.0
  0
VERTEX
  5
AC
330
AA
100
AcDbEntity
  8
Layer 1
 62
     7
370
    15
100
AcDbVertex
100
AcDb2dVertex
 10
202.203161570543
 20
162.8434624158864
 30
0.0
  0
VERTEX
  5
AD
330
AA
100
AcDbEntity
  8
Layer 1
 62
     7
370
    15
100
AcDbVertex
100
AcDb2dVertex
 10
248.504728127978
 20
161.5915147165466
 30
0.0
  0
VERTEX
  5
AE
330
AA
100
AcDbEntity
  8
Layer 1
 62
     7
370
    15
100
AcDbVertex
100
AcDb2dVertex
 10
340.5545789079169
 20
159.1027777380021
 30
0.0
  0
SEQEND
  5
AF
330
AA
100
AcDbEntity
  8
Layer 1
370
    15
  0
SPLINE
  5
B0
330
3C
100
AcDbEntity
  8
Layer 1
 62
     7
370
    15
100
AcDbSpline
210
0.0
220
0.0
230
1.0
 70
    24
 71
     3
 72
     8
 73
     4
 74
     0
 42
0.0000000001
 43
0.0000000001
 40
0.0
 40
0.0
 40
0.0
 40
0.0
 40
1.0
 40
1.0
 40
1.0
 40
1.0
 10
451.5517658376329
 20
159.1027777380021
 30
0.0
 10
452.2090900562186
 20
159.1027777380021
 30
0.0
 10
452.7923447218714
 20
159.1027777380021
 30
0.0
 10
453.304630420528
 20
159.1027777380021
 30
0.0
  0
SPLINE
  5
B1
330
3C
100
AcDbEntity
  8
Layer 1
 62
     7
370
    15
100
AcDbSpline
210
0.0
220
0.0
230
1.0
 70
     8
 71
     3
 72
     8
 73
     4
 74
     0
 42
0.0000000001
 43
0.0000000001
 40
0.0
 40
0.0
 40
0.0
 40
0.0
 40
1.0
 40
1.0
 40
1.0
 40
1.0
 10
453.304630420528
 20
159.1027777380021
 30
0.0
 10
453.8162271000876
 20
159.1041557761962
 30
0.0
 10
454.2589218699422
 20
159.1041557761962
 30
0.0
 10
454.6116996476318
 20
159.1041557761962
 30
0.0
  0
SPLINE
  5
B2
330
3C
100
AcDbEntity
  8
Layer 1
 62
     7
370
    15
100
AcDbSpline
210
0.0
220
0.0
230
1.0
 70
     8
 71
     3
 72
     8
 73
     4
 74
     0
 42
0.0000000001
 43
0.0000000001
 40
0.0
 40
0.0
 40
0.0
 40
0.0
 40
1.0
 40
1.0
 40
1.0
 40
1.0
 10
454.6116996476318
 20
159.1041557761962
 30
0.0
 10
454.9641329157729
 20
159.1048447952932
 30
0.0
 10
455.2321613445253
 20
159.1055338143903
 30
0.0
 10
455.4150959147921
 20
159.1055338143903
 30
0.0
  0
SPLINE
  5
B3
330
3C
100
AcDbEntity
  8
Layer 1
 62
     7
370
    15
100
AcDbSpline
210
0.0
220
0.0
230
1.0
 70
     8
 71
     3
 72
     8
 73
     4
 74
     0
 42
0.0000000001
 43
0.0000000001
 40
0.0
 40
0.0
 40
0.0
 40
0.0
 40
1.0
 40
1.0
 40
1.0
 40
1.0
 10
455.4150959147921
 20
159.1055338143903
 30
0.0
 10
455.5057019260541
 20
159.1062228334874
 30
0.0
 10
455.5756373644047
 20
159.1062228334874
 30
0.0
 10
455.6214571343585
 20
159.1076008716814
 30
0.0
  0
SPLINE
  5
B4
330
3C
100
AcDbEntity
  8
Layer 1
 62
     7
370
    15
100
AcDbSpline
210
0.0
220
0.0
230
1.0
 70
     8
 71
     3
 72
     8
 73
     4
 74
     0
 42
0.0000000001
 43
0.0000000001
 40
0.0
 40
0.0
 40
0.0
 40
0.0
 40
1.0
 40
1.0
 40
1.0
 40
1.0
 10
455.6214571343585
 20
159.1076008716814
 30
0.0
 10
455.6679659234094
 20
159.1076008716814
 30
0.0
 10
455.6913925727091
 20
159.1082898907785
 30
0.0
 10
455.6913925727091
 20
159.1082898907785
 30
0.0
  0
SPLINE
  5
B5
330
3C
100
AcDbEntity
  8
Layer 1
 62
     7
370
    15
100
AcDbSpline
210
0.0
220
0.0
230
1.0
 70
     8
 71
     3
 72
     8
 73
     4
 74
     0
 42
0.0000000001
 43
0.0000000001
 40
0.0
 40
0.0
 40
0.0
 40
0.0
 40
1.0
 40
1.0
 40
1.0
 40
1.0
 10
336.415124427615
 20
159.1082898907785
 30
0.0
 10
336.415124427615
 20
159.1082898907785
 30
0.0
 10
336.5077974961682
 20
159.1062228334874
 30
0.0
 10
336.6883204995953
 20
159.1055338143903
 30
0.0
  0
SPLINE
  5
B6
330
3C
100
AcDbEntity
  8
Layer 1
 62
     7
370
    15
100
AcDbSpline
210
0.0
220
0.0
230
1.0
 70
     8
 71
     3
 72
     8
 73
     4
 74
     0
 42
0.0000000001
 43
0.0000000001
 40
0.0
 40
0.0
 40
0.0
 40
0.0
 40
1.0
 40
1.0
 40
1.0
 40
1.0
 10
336.6883204995953
 20
159.1055338143903
 30
0.0
 10
336.8688435030224
 20
159.1055338143903
 30
0.0
 10
337.142211829777
 20
159.1048447952932
 30
0.0
 10
337.4948173526923
 20
159.1041557761962
 30
0.0
  0
SPLINE
  5
B7
330
3C
100
AcDbEntity
  8
Layer 1
 62
     7
370
    15
100
AcDbSpline
210
0.0
220
0.0
230
1.0
 70
     8
 71
     3
 72
     8
 73
     4
 74
     0
 42
0.0000000001
 43
0.0000000001
 40
0.0
 40
0.0
 40
0.0
 40
0.0
 40
1.0
 40
1.0
 40
1.0
 40
1.0
 10
337.4948173526923
 20
159.1041557761962
 30
0.0
 10
337.8472506208333
 20
159.1041557761962
 30
0.0
 10
338.2794378494579
 20
159.1041557761962
 30
0.0
 10
338.7931015863087
 20
159.1027777380021
 30
0.0
  0
SPLINE
  5
B8
330
3C
100
AcDbEntity
  8
Layer 1
 62
     7
370
    15
100
AcDbSpline
210
0.0
220
0.0
230
1.0
 70
    24
 71
     3
 72
     8
 73
     4
 74
     0
 42
0.0000000001
 43
0.0000000001
 40
0.0
 40
0.0
 40
0.0
 40
0.0
 40
1.0
 40
1.0
 40
1.0
 40
1.0
 10
338.7931015863087
 20
159.1027777380021
 30
0.0
 10
339.0497611999598
 20
159.1027777380021
 30
0.0
 10
339.3276081508452
 20
159.1027777380021
 30
0.0
 10
339.6211302861885
 20
159.1027777380021
 30
0.0
  0
SPLINE
  5
B9
330
3C
100
AcDbEntity
  8
Layer 1
 62
     7
370
    15
100
AcDbSpline
210
0.0
220
0.0
230
1.0
 70
    24
 71
     3
 72
     8
 73
     4
 74
     0
 42
0.0000000001
 43
0.0000000001
 40
0.0
 40
0.0
 40
0.0
 40
0.0
 40
1.0
 40
1.0
 40
1.0
 40
1.0
 10
339.6211302861885
 20
159.1027777380021
 30
0.0
 10
339.914824676306
 20
159.1027777380021
 30
0.0
 10
340.2260890533984
 20
159.1027777380021
 30
0.0
 10
340.5545789079169
 20
159.1027777380021
 30
0.0
  0
POLYLINE
  5
BA
330
3C
100
AcDbEntity
  8
Layer 1
 62
     7
370
    15
100
AcDb2dPolyline
 66
     1
 10
0.0
 20
0.0
 30
0.0
  0
VERTEX
  5
BB
330
BA
100
AcDbEntity
  8
Layer 1
 62
     7
370
    15
100
AcDbVertex
100
AcDb2dVertex
 10
156.0326808963217
 20
164.0912760006439
 30
0.0
  0
VERTEX
  5
BC
330
BA
100
AcDbEntity
  8
Layer 1
 62
     7
370
    15
100
AcDbVertex
100
AcDb2dVertex
 10
156.0323363867732
 20
164.0912760006439
 30
0.0
  0
SEQEND
  5
BD
330
BA
100
AcDbEntity
  8
Layer 1
370
    15
  0
POLYLINE
  5
BE
330
3C
100
AcDbEntity
  8
Layer 1
 62
     7
370
    15
100
AcDb2dPolyline
 66
     1
 10
0.0
 20
0.0
 30
0.0
  0
VERTEX
  5
BF
330
BE
100
AcDbEntity
  8
Layer 1
 62
     7
370
    15
100
AcDbVertex
100
AcDb2dVertex
 10
350.0532239250735
 20
156.1854708810925
 30
0.0
  0
VERTEX
  5
C0
330
BE
100
AcDbEntity
  8
Layer 1
 62
     7
370
    15
100
AcDbVertex
100
AcDb2dVertex
 10
350.0532239250735
 20
159.1076008716814
 30
0.0
  0
SEQEND
  5
C1
330
BE
100
AcDbEntity
  8
Layer 1
370
    15
  0
POLYLINE
  5
C2
330
3C
100
AcDbEntity
  8
Layer 1
 62
     7
370
    15
100
AcDb2dPolyline
 66
     1
 10
0.0
 20
0.0
 30
0.0
  0
VERTEX
  5
C3
330
C2
100
AcDbEntity
  8
Layer 1
 62
     7
370
    15
100
AcDbVertex
100
AcDb2dVertex
 10
339.3375989277524
 20
156.1854708810925
 30
0.0
  0
VERTEX
  5
C4
330
C2
100
AcDbEntity
  8
Layer 1
 62
     7
370
    15
100
AcDbVertex
100
AcDb2dVertex
 10
350.0532239250735
 20
156.1854708810925
 30
0.0
  0
SEQEND
  5
C5
330
C2
100
AcDbEntity
  8
Layer 1
370
    15
  0
POLYLINE
  5
C6
330
3C
100
AcDbEntity
  8
Layer 1
 62
     7
370
    15
100
AcDb2dPolyline
 66
     1
 10
0.0
 20
0.0
 30
0.0
  0
VERTEX
  5
C7
330
C6
100
AcDbEntity
  8
Layer 1
 62
     7
370
    15
100
AcDbVertex
100
AcDb2dVertex
 10
339.3375989277524
 20
156.1854708810925
 30
0.0
  0
VERTEX
  5
C8
330
C6
100
AcDbEntity
  8
Layer 1
 62
     7
370
    15
100
AcDbVertex
100
AcDb2dVertex
 10
336.415124427615
 20
159.1082898907785
 30
0.0
  0
SEQEND
  5
C9
330
C6
100
AcDbEntity
  8
Layer 1
370
    15
  0
POLYLINE
  5
CA
330
3C
100
AcDbEntity
  8
Layer 1
 62
     7
370
    15
100
AcDb2dPolyline
 66
     1
 10
0.0
 20
0.0
 30
0.0
  0
VERTEX
  5
CB
330
CA
100
AcDbEntity
  8
Layer 1
 62
     7
370
    15
100
AcDbVertex
100
AcDb2dVertex
 10
452.7689180725717
 20
156.1854708810925
 30
0.0
  0
VERTEX
  5
CC
330
CA
100
AcDbEntity
  8
Layer 1
 62
     7
370
    15
100
AcDbVertex
100
AcDb2dVertex
 10
455.6913925727091
 20
159.1082898907785
 30
0.0
  0
SEQEND
  5
CD
330
CA
100
AcDbEntity
  8
Layer 1
370
    15
  0
POLYLINE
  5
CE
330
3C
100
AcDbEntity
  8
Layer 1
 62
     7
370
    15
100
AcDb2dPolyline
 66
     1
 10
0.0
 20
0.0
 30
0.0
  0
VERTEX
  5
CF
330
CE
100
AcDbEntity
  8
Layer 1
 62
     7
370
    15
100
AcDbVertex
100
AcDb2dVertex
 10
442.0532930752506
 20
156.1854708810925
 30
0.0
  0
VERTEX
  5
D0
330
CE
100
AcDbEntity
  8
Layer 1
 62
     7
370
    15
100
AcDbVertex
100
AcDb2dVertex
 10
452.7689180725717
 20
156.1854708810925
 30
0.0
  0
SEQEND
  5
D1
330
CE
100
AcDbEntity
  8
Layer 1
370
    15
  0
POLYLINE
  5
D2
330
3C
100
AcDbEntity
  8
Layer 1
 62
     7
370
    15
100
AcDb2dPolyline
 66
     1
 10
0.0
 20
0.0
 30
0.0
  0
VERTEX
  5
D3
330
D2
100
AcDbEntity
  8
Layer 1
 62
     7
370
    15
100
AcDbVertex
100
AcDb2dVertex
 10
442.0532930752506
 20
156.1854708810925
 30
0.0
  0
VERTEX
  5
D4
330
D2
100
AcDbEntity
  8
Layer 1
 62
     7
370
    15
100
AcDbVertex
100
AcDb2dVertex
 10
442.0532930752506
 20
159.1076008716814
 30
0.0
  0
SEQEND
  5
D5
330
D2
100
AcDbEntity
  8
Layer 1
370
    15
  0
POLYLINE
  5
D6
330
3C
100
AcDbEntity
  8
Layer 1
 62
     7
370
    15
100
AcDb2dPolyline
 66
     1
 10
0.0
 20
0.0
 30
0.0
  0
VERTEX
  5
D7
330
D6
100
AcDbEntity
  8
Layer 1
 62
     7
370
    15
100
AcDbVertex
100
AcDb2dVertex
 10
350.0532239250735
 20
156.1854708810925
 30
0.0
  0
VERTEX
  5
D8
330
D6
100
AcDbEntity
  8
Layer 1
 62
     7
370
    15
100
AcDbVertex
100
AcDb2dVertex
 10
442.0532930752506
 20
156.1854708810925
 30
0.0
  0
SEQEND
  5
D9
330
D6
100
AcDbEntity
  8
Layer 1
370
    15
  0
SPLINE
  5
DA
330
3C
100
AcDbEntity
  8
Layer 1
 62
     7
370
    15
100
AcDbSpline
210
0.0
220
0.0
230
1.0
 70
     8
 71
     3
 72
     8
 73
     4
 74
     0
 42
0.0000000001
 43
0.0000000001
 40
0.0
 40
0.0
 40
0.0
 40
0.0
 40
1.0
 40
1.0
 40
1.0
 40
1.0
 10
362.553408383754
 20
154.0922308642547
 30
0.0
 10
362.4081976090507
 20
154.0922308642547
 30
0.0
 10
362.2635035986702
 20
154.0922308642547
 30
0.0
 10
362.1188095882898
 20
154.0908528260606
 30
0.0
  0
POLYLINE
  5
DB
330
3C
100
AcDbEntity
  8
Layer 1
 62
     7
370
    15
100
AcDb2dPolyline
 66
     1
 10
0.0
 20
0.0
 30
0.0
  0
VERTEX
  5
DC
330
DB
100
AcDbEntity
  8
Layer 1
 62
     7
370
    15
100
AcDbVertex
100
AcDb2dVertex
 10
352.5626314765295
 20
154.0908528260606
 30
0.0
  0
VERTEX
  5
DD
330
DB
100
AcDbEntity
  8
Layer 1
 62
     7
370
    15
100
AcDbVertex
100
AcDb2dVertex
 10
362.1188095882898
 20
154.0908528260606
 30
0.0
  0
SEQEND
  5
DE
330
DB
100
AcDbEntity
  8
Layer 1
370
    15
  0
POLYLINE
  5
DF
330
3C
100
AcDbEntity
  8
Layer 1
 62
     7
370
    15
100
AcDb2dPolyline
 66
     1
 10
0.0
 20
0.0
 30
0.0
  0
VERTEX
  5
E0
330
DF
100
AcDbEntity
  8
Layer 1
 62
     7
370
    15
100
AcDbVertex
100
AcDb2dVertex
 10
352.5626314765295
 20
154.0908528260606
 30
0.0
  0
VERTEX
  5
E1
330
DF
100
AcDbEntity
  8
Layer 1
 62
     7
370
    15
100
AcDbVertex
100
AcDb2dVertex
 10
350.0532239250735
 20
154.4884168450585
 30
0.0
  0
SEQEND
  5
E2
330
DF
100
AcDbEntity
  8
Layer 1
370
    15
  0
POLYLINE
  5
E3
330
3C
100
AcDbEntity
  8
Layer 1
 62
     7
370
    15
100
AcDb2dPolyline
 66
     1
 10
0.0
 20
0.0
 30
0.0
  0
VERTEX
  5
E4
330
E3
100
AcDbEntity
  8
Layer 1
 62
     7
370
    15
100
AcDbVertex
100
AcDb2dVertex
 10
350.0532239250735
 20
154.4884168450585
 30
0.0
  0
VERTEX
  5
E5
330
E3
100
AcDbEntity
  8
Layer 1
 62
     7
370
    15
100
AcDbVertex
100
AcDb2dVertex
 10
350.0532239250735
 20
156.1854708810925
 30
0.0
  0
SEQEND
  5
E6
330
E3
100
AcDbEntity
  8
Layer 1
370
    15
  0
POLYLINE
  5
E7
330
3C
100
AcDbEntity
  8
Layer 1
 62
     7
370
    15
100
AcDb2dPolyline
 66
     1
 10
0.0
 20
0.0
 30
0.0
  0
VERTEX
  5
E8
330
E7
100
AcDbEntity
  8
Layer 1
 62
     7
370
    15
100
AcDbVertex
100
AcDb2dVertex
 10
442.0532930752506
 20
154.4884168450585
 30
0.0
  0
VERTEX
  5
E9
330
E7
100
AcDbEntity
  8
Layer 1
 62
     7
370
    15
100
AcDbVertex
100
AcDb2dVertex
 10
442.0532930752506
 20
156.1854708810925
 30
0.0
  0
SEQEND
  5
EA
330
E7
100
AcDbEntity
  8
Layer 1
370
    15
  0
POLYLINE
  5
EB
330
3C
100
AcDbEntity
  8
Layer 1
 62
     7
370
    15
100
AcDb2dPolyline
 66
     1
 10
0.0
 20
0.0
 30
0.0
  0
VERTEX
  5
EC
330
EB
100
AcDbEntity
  8
Layer 1
 62
     7
370
    15
100
AcDbVertex
100
AcDb2dVertex
 10
439.5442300333431
 20
154.0908528260606
 30
0.0
  0
VERTEX
  5
ED
330
EB
100
AcDbEntity
  8
Layer 1
 62
     7
370
    15
100
AcDbVertex
100
AcDb2dVertex
 10
442.0532930752506
 20
154.4884168450585
 30
0.0
  0
SEQEND
  5
EE
330
EB
100
AcDbEntity
  8
Layer 1
370
    15
  0
POLYLINE
  5
EF
330
3C
100
AcDbEntity
  8
Layer 1
 62
     7
370
    15
100
AcDb2dPolyline
 66
     1
 10
0.0
 20
0.0
 30
0.0
  0
VERTEX
  5
F0
330
EF
100
AcDbEntity
  8
Layer 1
 62
     7
370
    15
100
AcDbVertex
100
AcDb2dVertex
 10
429.9882241763571
 20
154.0908528260606
 30
0.0
  0
VERTEX
  5
F1
330
EF
100
AcDbEntity
  8
Layer 1
 62
     7
370
    15
100
AcDbVertex
100
AcDb2dVertex
 10
439.5442300333431
 20
154.0908528260606
 30
0.0
  0
SEQEND
  5
F2
330
EF
100
AcDbEntity
  8
Layer 1
370
    15
  0
SPLINE
  5
F3
330
3C
100
AcDbEntity
  8
Layer 1
 62
     7
370
    15
100
AcDbSpline
210
0.0
220
0.0
230
1.0
 70
     8
 71
     3
 72
     8
 73
     4
 74
     0
 42
0.0000000001
 43
0.0000000001
 40
0.0
 40
0.0
 40
0.0
 40
0.0
 40
1.0
 40
1.0
 40
1.0
 40
1.0
 10
429.9882241763571
 20
154.0908528260606
 30
0.0
 10
429.8435301659766
 20
154.0922308642547
 30
0.0
 10
429.6978026269506
 20
154.0922308642547
 30
0.0
 10
429.5531086165701
 20
154.0922308642547
 30
0.0
  0
POLYLINE
  5
F4
330
3C
100
AcDbEntity
  8
Layer 1
 62
     7
370
    15
100
AcDb2dPolyline
 66
     1
 10
0.0
 20
0.0
 30
0.0
  0
VERTEX
  5
F5
330
F4
100
AcDbEntity
  8
Layer 1
 62
     7
370
    15
100
AcDbVertex
100
AcDb2dVertex
 10
362.553408383754
 20
154.0922308642547
 30
0.0
  0
VERTEX
  5
F6
330
F4
100
AcDbEntity
  8
Layer 1
 62
     7
370
    15
100
AcDbVertex
100
AcDb2dVertex
 10
429.5531086165701
 20
154.0922308642547
 30
0.0
  0
SEQEND
  5
F7
330
F4
100
AcDbEntity
  8
Layer 1
370
    15
  0
POLYLINE
  5
F8
330
3C
100
AcDbEntity
  8
Layer 1
 62
     7
370
    15
100
AcDb2dPolyline
 66
     1
 10
0.0
 20
0.0
 30
0.0
  0
VERTEX
  5
F9
330
F8
100
AcDbEntity
  8
Layer 1
 62
     7
370
    15
100
AcDbVertex
100
AcDb2dVertex
 10
350.0532239250735
 20
154.4884168450585
 30
0.0
  0
VERTEX
  5
FA
330
F8
100
AcDbEntity
  8
Layer 1
 62
     7
370
    15
100
AcDbVertex
100
AcDb2dVertex
 10
339.3375989277524
 20
156.1854708810925
 30
0.0
  0
SEQEND
  5
FB
330
F8
100
AcDbEntity
  8
Layer 1
370
    15
  0
POLYLINE
  5
FC
330
3C
100
AcDbEntity
  8
Layer 1
 62
     7
370
    15
100
AcDb2dPolyline
 66
     1
 10
0.0
 20
0.0
 30
0.0
  0
VERTEX
  5
FD
330
FC
100
AcDbEntity
  8
Layer 1
 62
     7
370
    15
100
AcDbVertex
100
AcDb2dVertex
 10
442.0532930752506
 20
154.4884168450585
 30
0.0
  0
VERTEX
  5
FE
330
FC
100
AcDbEntity
  8
Layer 1
 62
     7
370
    15
100
AcDbVertex
100
AcDb2dVertex
 10
452.7689180725717
 20
156.1854708810925
 30
0.0
  0
SEQEND
  5
FF
330
FC
100
AcDbEntity
  8
Layer 1
370
    15
  0
POLYLINE
  5
100
330
3C
100
AcDbEntity
  8
Layer 1
 62
     7
370
    15
100
AcDb2dPolyline
 66
     1
 10
0.0
 20
0.0
 30
0.0
  0
VERTEX
  5
101
330
100
100
AcDbEntity
  8
Layer 1
 62
     7
370
    15
100
AcDbVertex
100
AcDb2dVertex
 10
452.7689180725717
 20
156.1854708810925
 30
0.0
  0
VERTEX
  5
102
330
100
100
AcDbEntity
  8
Layer 1
 62
     7
370
    15
100
AcDbVertex
100
AcDb2dVertex
 10
452.7689180725717
 20
156.1854708810925
 30
0.0
  0
SEQEND
  5
103
330
100
100
AcDbEntity
  8
Layer 1
370
    15
  0
POLYLINE
  5
104
330
3C
100
AcDbEntity
  8
Layer 1
370
     0
100
AcDb2dPolyline
 66
     1
 10
0.0
 20
0.0
 30
0.0
  0
VERTEX
  5
105
330
104
100
AcDbEntity
  8
Layer 1
370
     0
100
AcDbVertex
100
AcDb2dVertex
 10
-22.36383734249932
 20
390.5911457356856
 30
0.0
  0
VERTEX
  5
106
330
104
100
AcDbEntity
  8
Layer 1
370
     0
100
AcDbVertex
100
AcDb2dVertex
 10
-27.36353216546815
 20
420.5905204569183
 30
0.0
  0
VERTEX
  5
107
330
104
100
AcDbEntity
  8
Layer 1
370
     0
100
AcDbVertex
100
AcDb2dVertex
 10
-17.36379800998197
 20
420.5905204569183
 30
0.0
  0
SEQEND
  5
108
330
104
100
AcDbEntity
  8
Layer 1
370
     0
  0
HATCH
  5
109
330
3C
100
AcDbEntity
  8
Layer 1
 62
     7
100
AcDbHatch
 10
0.0
 20
0.0
 30
0.0
210
0.0
220
0.0
230
1.0
  2
SOLID
 70
     1
 71
     0
 91
        1
 92
        1
 93
        3
 72
     1
 10
-22.36383734249932
 20
390.5911457356856
 11
-27.36353216546815
 21
420.5905204569183
 72
     1
 10
-27.36353216546815
 20
420.5905204569183
 11
-17.36379800998197
 21
420.5905204569183
 72
     1
 10
-17.36379800998197
 20
420.5905204569183
 11
-22.36383734249932
 21
390.5911457356856
 97
        0
 75
     2
 76
     1
 98
        0
  0
POLYLINE
  5
10A
330
3C
100
AcDbEntity
  8
Layer 1
370
     0
100
AcDb2dPolyline
 66
     1
 10
0.0
 20
0.0
 30
0.0
  0
VERTEX
  5
10B
330
10A
100
AcDbEntity
  8
Layer 1
370
     0
100
AcDbVertex
100
AcDb2dVertex
 10
-22.36383734249932
 20
164.0912760006439
 30
0.0
  0
VERTEX
  5
10C
330
10A
100
AcDbEntity
  8
Layer 1
370
     0
100
AcDbVertex
100
AcDb2dVertex
 10
-17.36379800998197
 20
134.0913845150883
 30
0.0
  0
VERTEX
  5
10D
330
10A
100
AcDbEntity
  8
Layer 1
370
     0
100
AcDbVertex
100
AcDb2dVertex
 10
-27.36353216546815
 20
134.0913845150883
 30
0.0
  0
SEQEND
  5
10E
330
10A
100
AcDbEntity
  8
Layer 1
370
     0
  0
HATCH
  5
10F
330
3C
100
AcDbEntity
  8
Layer 1
 62
     7
100
AcDbHatch
 10
0.0
 20
0.0
 30
0.0
210
0.0
220
0.0
230
1.0
  2
SOLID
 70
     1
 71
     0
 91
        1
 92
        1
 93
        3
 72
     1
 10
-22.36383734249932
 20
164.0912760006439
 11
-17.36379800998197
 21
134.0913845150883
 72
     1
 10
-17.36379800998197
 20
134.0913845150883
 11
-27.36353216546815
 21
134.0913845150883
 72
     1
 10
-27.36353216546815
 20
134.0913845150883
 11
-22.36383734249932
 21
164.0912760006439
 97
        0
 75
     2
 76
     1
 98
        0
  0
POLYLINE
  5
110
330
3C
100
AcDbEntity
  8
Layer 1
 62
     7
370
    25
100
AcDb2dPolyline
 66
     1
 10
0.0
 20
0.0
 30
0.0
  0
VERTEX
  5
111
330
110
100
AcDbEntity
  8
Layer 1
 62
     7
370
    25
100
AcDbVertex
100
AcDb2dVertex
 10
80.44745820471452
 20
390.5911457356856
 30
0.0
  0
VERTEX
  5
112
330
110
100
AcDbEntity
  8
Layer 1
 62
     7
370
    25
100
AcDbVertex
100
AcDb2dVertex
 10
-32.36374375275976
 20
390.5911457356856
 30
0.0
  0
SEQEND
  5
113
330
110
100
AcDbEntity
  8
Layer 1
370
    25
  0
POLYLINE
  5
114
330
3C
100
AcDbEntity
  8
Layer 1
 62
     7
370
    25
100
AcDb2dPolyline
 66
     1
 10
0.0
 20
0.0
 30
0.0
  0
VERTEX
  5
115
330
114
100
AcDbEntity
  8
Layer 1
 62
     7
370
    25
100
AcDbVertex
100
AcDb2dVertex
 10
80.44745820471452
 20
164.0912760006439
 30
0.0
  0
VERTEX
  5
116
330
114
100
AcDbEntity
  8
Layer 1
 62
     7
370
    25
100
AcDbVertex
100
AcDb2dVertex
 10
-32.36374375275976
 20
164.0912760006439
 30
0.0
  0
SEQEND
  5
117
330
114
100
AcDbEntity
  8
Layer 1
370
    25
  0
POLYLINE
  5
118
330
3C
100
AcDbEntity
  8
Layer 1
 62
     7
370
    25
100
AcDb2dPolyline
 66
     1
 10
0.0
 20
0.0
 30
0.0
  0
VERTEX
  5
119
330
118
100
AcDbEntity
  8
Layer 1
 62
     7
370
    25
100
AcDbVertex
100
AcDb2dVertex
 10
-22.36383734249932
 20
390.5911457356856
 30
0.0
  0
VERTEX
  5
11A
330
118
100
AcDbEntity
  8
Layer 1
 62
     7
370
    25
100
AcDbVertex
100
AcDb2dVertex
 10
-22.36383734249932
 20
450.5905841972482
 30
0.0
  0
SEQEND
  5
11B
330
118
100
AcDbEntity
  8
Layer 1
370
    25
  0
POLYLINE
  5
11C
330
3C
100
AcDbEntity
  8
Layer 1
 62
     7
370
    25
100
AcDb2dPolyline
 66
     1
 10
0.0
 20
0.0
 30
0.0
  0
VERTEX
  5
11D
330
11C
100
AcDbEntity
  8
Layer 1
 62
     7
370
    25
100
AcDbVertex
100
AcDb2dVertex
 10
-22.36383734249932
 20
390.5911457356856
 30
0.0
  0
VERTEX
  5
11E
330
11C
100
AcDbEntity
  8
Layer 1
 62
     7
370
    25
100
AcDbVertex
100
AcDb2dVertex
 10
-22.36383734249932
 20
164.0912760006439
 30
0.0
  0
SEQEND
  5
11F
330
11C
100
AcDbEntity
  8
Layer 1
370
    25
  0
POLYLINE
  5
120
330
3C
100
AcDbEntity
  8
Layer 1
 62
     7
370
    25
100
AcDb2dPolyline
 66
     1
 10
0.0
 20
0.0
 30
0.0
  0
VERTEX
  5
121
330
120
100
AcDbEntity
  8
Layer 1
 62
     7
370
    25
100
AcDbVertex
100
AcDb2dVertex
 10
-22.36383734249932
 20
164.0912760006439
 30
0.0
  0
VERTEX
  5
122
330
120
100
AcDbEntity
  8
Layer 1
 62
     7
370
    25
100
AcDbVertex
100
AcDb2dVertex
 10
-22.36383734249932
 20
104.0914930295327
 30
0.0
  0
SEQEND
  5
123
330
120
100
AcDbEntity
  8
Layer 1
370
    25
  0
POLYLINE
  5
124
330
3C
100
AcDbEntity
  8
Layer 1
 62
     7
370
    25
100
AcDb2dPolyline
 66
     1
 10
0.0
 20
0.0
 30
0.0
  0
VERTEX
  5
125
330
124
100
AcDbEntity
  8
Layer 1
 62
     7
370
    25
100
AcDbVertex
100
AcDb2dVertex
 10
-69.87876652983934
 20
213.2534775942561
 30
0.0
  0
VERTEX
  5
126
330
124
100
AcDbEntity
  8
Layer 1
 62
     7
370
    25
100
AcDbVertex
100
AcDb2dVertex
 10
-76.93414982885675
 20
218.5451442595998
 30
0.0
  0
SEQEND
  5
127
330
124
100
AcDbEntity
  8
Layer 1
370
    25
  0
POLYLINE
  5
128
330
3C
100
AcDbEntity
  8
Layer 1
 62
     7
370
    25
100
AcDb2dPolyline
 66
     1
 10
0.0
 20
0.0
 30
0.0
  0
VERTEX
  5
129
330
128
100
AcDbEntity
  8
Layer 1
 62
     7
370
    25
100
AcDbVertex
100
AcDb2dVertex
 10
-76.93414982885675
 20
218.5451442595998
 30
0.0
  0
VERTEX
  5
12A
330
128
100
AcDbEntity
  8
Layer 1
 62
     7
370
    25
100
AcDbVertex
100
AcDb2dVertex
 10
-76.93414982885675
 20
229.1284775902873
 30
0.0
  0
SEQEND
  5
12B
330
128
100
AcDbEntity
  8
Layer 1
370
    25
  0
POLYLINE
  5
12C
330
3C
100
AcDbEntity
  8
Layer 1
 62
     7
370
    25
100
AcDb2dPolyline
 66
     1
 10
0.0
 20
0.0
 30
0.0
  0
VERTEX
  5
12D
330
12C
100
AcDbEntity
  8
Layer 1
 62
     7
370
    25
100
AcDbVertex
100
AcDb2dVertex
 10
-76.93414982885675
 20
229.1284775902873
 30
0.0
  0
VERTEX
  5
12E
330
12C
100
AcDbEntity
  8
Layer 1
 62
     7
370
    25
100
AcDbVertex
100
AcDb2dVertex
 10
-69.87876652983934
 20
234.4201442556311
 30
0.0
  0
SEQEND
  5
12F
330
12C
100
AcDbEntity
  8
Layer 1
370
    25
  0
POLYLINE
  5
130
330
3C
100
AcDbEntity
  8
Layer 1
 62
     7
370
    25
100
AcDb2dPolyline
 66
     1
 10
0.0
 20
0.0
 30
0.0
  0
VERTEX
  5
131
330
130
100
AcDbEntity
  8
Layer 1
 62
     7
370
    25
100
AcDbVertex
100
AcDb2dVertex
 10
-69.87876652983934
 20
234.4201442556311
 30
0.0
  0
VERTEX
  5
132
330
130
100
AcDbEntity
  8
Layer 1
 62
     7
370
    25
100
AcDbVertex
100
AcDb2dVertex
 10
-62.82303872127341
 20
234.4201442556311
 30
0.0
  0
SEQEND
  5
133
330
130
100
AcDbEntity
  8
Layer 1
370
    25
  0
POLYLINE
  5
134
330
3C
100
AcDbEntity
  8
Layer 1
 62
     7
370
    25
100
AcDb2dPolyline
 66
     1
 10
0.0
 20
0.0
 30
0.0
  0
VERTEX
  5
135
330
134
100
AcDbEntity
  8
Layer 1
 62
     7
370
    25
100
AcDbVertex
100
AcDb2dVertex
 10
-62.82303872127341
 20
234.4201442556311
 30
0.0
  0
VERTEX
  5
136
330
134
100
AcDbEntity
  8
Layer 1
 62
     7
370
    25
100
AcDbVertex
100
AcDb2dVertex
 10
-55.76765542225601
 20
229.1284775902873
 30
0.0
  0
SEQEND
  5
137
330
134
100
AcDbEntity
  8
Layer 1
370
    25
  0
POLYLINE
  5
138
330
3C
100
AcDbEntity
  8
Layer 1
 62
     7
370
    25
100
AcDb2dPolyline
 66
     1
 10
0.0
 20
0.0
 30
0.0
  0
VERTEX
  5
139
330
138
100
AcDbEntity
  8
Layer 1
 62
     7
370
    25
100
AcDbVertex
100
AcDb2dVertex
 10
-55.76765542225601
 20
229.1284775902873
 30
0.0
  0
VERTEX
  5
13A
330
138
100
AcDbEntity
  8
Layer 1
 62
     7
370
    25
100
AcDbVertex
100
AcDb2dVertex
 10
-55.76765542225601
 20
218.5451442595998
 30
0.0
  0
SEQEND
  5
13B
330
138
100
AcDbEntity
  8
Layer 1
370
    25
  0
POLYLINE
  5
13C
330
3C
100
AcDbEntity
  8
Layer 1
 62
     7
370
    25
100
AcDb2dPolyline
 66
     1
 10
0.0
 20
0.0
 30
0.0
  0
VERTEX
  5
13D
330
13C
100
AcDbEntity
  8
Layer 1
 62
     7
370
    25
100
AcDbVertex
100
AcDb2dVertex
 10
-55.76765542225601
 20
218.5451442595998
 30
0.0
  0
VERTEX
  5
13E
330
13C
100
AcDbEntity
  8
Layer 1
 62
     7
370
    25
100
AcDbVertex
100
AcDb2dVertex
 10
-48.71192761369008
 20
213.2534775942561
 30
0.0
  0
SEQEND
  5
13F
330
13C
100
AcDbEntity
  8
Layer 1
370
    25
  0
POLYLINE
  5
140
330
3C
100
AcDbEntity
  8
Layer 1
 62
     7
370
    25
100
AcDb2dPolyline
 66
     1
 10
0.0
 20
0.0
 30
0.0
  0
VERTEX
  5
141
330
140
100
AcDbEntity
  8
Layer 1
 62
     7
370
    25
100
AcDbVertex
100
AcDb2dVertex
 10
-48.71192761369008
 20
213.2534775942561
 30
0.0
  0
VERTEX
  5
142
330
140
100
AcDbEntity
  8
Layer 1
 62
     7
370
    25
100
AcDbVertex
100
AcDb2dVertex
 10
-34.60064425133248
 20
213.2534775942561
 30
0.0
  0
SEQEND
  5
143
330
140
100
AcDbEntity
  8
Layer 1
370
    25
  0
POLYLINE
  5
144
330
3C
100
AcDbEntity
  8
Layer 1
 62
     7
370
    25
100
AcDb2dPolyline
 66
     1
 10
0.0
 20
0.0
 30
0.0
  0
VERTEX
  5
145
330
144
100
AcDbEntity
  8
Layer 1
 62
     7
370
    25
100
AcDbVertex
100
AcDb2dVertex
 10
-34.60064425133248
 20
213.2534775942561
 30
0.0
  0
VERTEX
  5
146
330
144
100
AcDbEntity
  8
Layer 1
 62
     7
370
    25
100
AcDbVertex
100
AcDb2dVertex
 10
-34.60064425133248
 20
234.4201442556311
 30
0.0
  0
SEQEND
  5
147
330
144
100
AcDbEntity
  8
Layer 1
370
    25
  0
POLYLINE
  5
148
330
3C
100
AcDbEntity
  8
Layer 1
 62
     7
370
    25
100
AcDb2dPolyline
 66
     1
 10
0.0
 20
0.0
 30
0.0
  0
VERTEX
  5
149
330
148
100
AcDbEntity
  8
Layer 1
 62
     7
370
    25
100
AcDbVertex
100
AcDb2dVertex
 10
-69.87876652983934
 20
245.0027885672215
 30
0.0
  0
VERTEX
  5
14A
330
148
100
AcDbEntity
  8
Layer 1
 62
     7
370
    25
100
AcDbVertex
100
AcDb2dVertex
 10
-76.93414982885675
 20
250.2944552325653
 30
0.0
  0
SEQEND
  5
14B
330
148
100
AcDbEntity
  8
Layer 1
370
    25
  0
POLYLINE
  5
14C
330
3C
100
AcDbEntity
  8
Layer 1
 62
     7
370
    25
100
AcDb2dPolyline
 66
     1
 10
0.0
 20
0.0
 30
0.0
  0
VERTEX
  5
14D
330
14C
100
AcDbEntity
  8
Layer 1
 62
     7
370
    25
100
AcDbVertex
100
AcDb2dVertex
 10
-76.93414982885675
 20
250.2944552325653
 30
0.0
  0
VERTEX
  5
14E
330
14C
100
AcDbEntity
  8
Layer 1
 62
     7
370
    25
100
AcDbVertex
100
AcDb2dVertex
 10
-76.93414982885675
 20
260.8777885632528
 30
0.0
  0
SEQEND
  5
14F
330
14C
100
AcDbEntity
  8
Layer 1
370
    25
  0
POLYLINE
  5
150
330
3C
100
AcDbEntity
  8
Layer 1
 62
     7
370
    25
100
AcDb2dPolyline
 66
     1
 10
0.0
 20
0.0
 30
0.0
  0
VERTEX
  5
151
330
150
100
AcDbEntity
  8
Layer 1
 62
     7
370
    25
100
AcDbVertex
100
AcDb2dVertex
 10
-76.93414982885675
 20
260.8777885632528
 30
0.0
  0
VERTEX
  5
152
330
150
100
AcDbEntity
  8
Layer 1
 62
     7
370
    25
100
AcDbVertex
100
AcDb2dVertex
 10
-69.87876652983934
 20
266.1694552285965
 30
0.0
  0
SEQEND
  5
153
330
150
100
AcDbEntity
  8
Layer 1
370
    25
  0
POLYLINE
  5
154
330
3C
100
AcDbEntity
  8
Layer 1
 62
     7
370
    25
100
AcDb2dPolyline
 66
     1
 10
0.0
 20
0.0
 30
0.0
  0
VERTEX
  5
155
330
154
100
AcDbEntity
  8
Layer 1
 62
     7
370
    25
100
AcDbVertex
100
AcDb2dVertex
 10
-69.87876652983934
 20
266.1694552285965
 30
0.0
  0
VERTEX
  5
156
330
154
100
AcDbEntity
  8
Layer 1
 62
     7
370
    25
100
AcDbVertex
100
AcDb2dVertex
 10
-62.82303872127341
 20
266.1694552285965
 30
0.0
  0
SEQEND
  5
157
330
154
100
AcDbEntity
  8
Layer 1
370
    25
  0
POLYLINE
  5
158
330
3C
100
AcDbEntity
  8
Layer 1
 62
     7
370
    25
100
AcDb2dPolyline
 66
     1
 10
0.0
 20
0.0
 30
0.0
  0
VERTEX
  5
159
330
158
100
AcDbEntity
  8
Layer 1
 62
     7
370
    25
100
AcDbVertex
100
AcDb2dVertex
 10
-62.82303872127341
 20
266.1694552285965
 30
0.0
  0
VERTEX
  5
15A
330
158
100
AcDbEntity
  8
Layer 1
 62
     7
370
    25
100
AcDbVertex
100
AcDb2dVertex
 10
-55.76765542225601
 20
260.8777885632528
 30
0.0
  0
SEQEND
  5
15B
330
158
100
AcDbEntity
  8
Layer 1
370
    25
  0
POLYLINE
  5
15C
330
3C
100
AcDbEntity
  8
Layer 1
 62
     7
370
    25
100
AcDb2dPolyline
 66
     1
 10
0.0
 20
0.0
 30
0.0
  0
VERTEX
  5
15D
330
15C
100
AcDbEntity
  8
Layer 1
 62
     7
370
    25
100
AcDbVertex
100
AcDb2dVertex
 10
-55.76765542225601
 20
260.8777885632528
 30
0.0
  0
VERTEX
  5
15E
330
15C
100
AcDbEntity
  8
Layer 1
 62
     7
370
    25
100
AcDbVertex
100
AcDb2dVertex
 10
-55.76765542225601
 20
250.2944552325653
 30
0.0
  0
SEQEND
  5
15F
330
15C
100
AcDbEntity
  8
Layer 1
370
    25
  0
POLYLINE
  5
160
330
3C
100
AcDbEntity
  8
Layer 1
 62
     7
370
    25
100
AcDb2dPolyline
 66
     1
 10
0.0
 20
0.0
 30
0.0
  0
VERTEX
  5
161
330
160
100
AcDbEntity
  8
Layer 1
 62
     7
370
    25
100
AcDbVertex
100
AcDb2dVertex
 10
-55.76765542225601
 20
250.2944552325653
 30
0.0
  0
VERTEX
  5
162
330
160
100
AcDbEntity
  8
Layer 1
 62
     7
370
    25
100
AcDbVertex
100
AcDb2dVertex
 10
-48.71192761369008
 20
245.0027885672215
 30
0.0
  0
SEQEND
  5
163
330
160
100
AcDbEntity
  8
Layer 1
370
    25
  0
POLYLINE
  5
164
330
3C
100
AcDbEntity
  8
Layer 1
 62
     7
370
    25
100
AcDb2dPolyline
 66
     1
 10
0.0
 20
0.0
 30
0.0
  0
VERTEX
  5
165
330
164
100
AcDbEntity
  8
Layer 1
 62
     7
370
    25
100
AcDbVertex
100
AcDb2dVertex
 10
-48.71192761369008
 20
245.0027885672215
 30
0.0
  0
VERTEX
  5
166
330
164
100
AcDbEntity
  8
Layer 1
 62
     7
370
    25
100
AcDbVertex
100
AcDb2dVertex
 10
-34.60064425133248
 20
245.0027885672215
 30
0.0
  0
SEQEND
  5
167
330
164
100
AcDbEntity
  8
Layer 1
370
    25
  0
POLYLINE
  5
168
330
3C
100
AcDbEntity
  8
Layer 1
 62
     7
370
    25
100
AcDb2dPolyline
 66
     1
 10
0.0
 20
0.0
 30
0.0
  0
VERTEX
  5
169
330
168
100
AcDbEntity
  8
Layer 1
 62
     7
370
    25
100
AcDbVertex
100
AcDb2dVertex
 10
-34.60064425133248
 20
245.0027885672215
 30
0.0
  0
VERTEX
  5
16A
330
168
100
AcDbEntity
  8
Layer 1
 62
     7
370
    25
100
AcDbVertex
100
AcDb2dVertex
 10
-34.60064425133248
 20
266.1694552285965
 30
0.0
  0
SEQEND
  5
16B
330
168
100
AcDbEntity
  8
Layer 1
370
    25
  0
POLYLINE
  5
16C
330
3C
100
AcDbEntity
  8
Layer 1
 62
     7
370
    25
100
AcDb2dPolyline
 66
     1
 10
0.0
 20
0.0
 30
0.0
  0
VERTEX
  5
16D
330
16C
100
AcDbEntity
  8
Layer 1
 62
     7
370
    25
100
AcDbVertex
100
AcDb2dVertex
 10
-41.65654431467267
 20
276.7527885592841
 30
0.0
  0
VERTEX
  5
16E
330
16C
100
AcDbEntity
  8
Layer 1
 62
     7
370
    25
100
AcDbVertex
100
AcDb2dVertex
 10
-34.60064425133248
 20
282.0444552246278
 30
0.0
  0
SEQEND
  5
16F
330
16C
100
AcDbEntity
  8
Layer 1
370
    25
  0
POLYLINE
  5
170
330
3C
100
AcDbEntity
  8
Layer 1
 62
     7
370
    25
100
AcDb2dPolyline
 66
     1
 10
0.0
 20
0.0
 30
0.0
  0
VERTEX
  5
171
330
170
100
AcDbEntity
  8
Layer 1
 62
     7
370
    25
100
AcDbVertex
100
AcDb2dVertex
 10
-34.60064425133248
 20
282.0444552246278
 30
0.0
  0
VERTEX
  5
172
330
170
100
AcDbEntity
  8
Layer 1
 62
     7
370
    25
100
AcDbVertex
100
AcDb2dVertex
 10
-34.60064425133248
 20
292.6284775744123
 30
0.0
  0
SEQEND
  5
173
330
170
100
AcDbEntity
  8
Layer 1
370
    25
  0
POLYLINE
  5
174
330
3C
100
AcDbEntity
  8
Layer 1
 62
     7
370
    25
100
AcDb2dPolyline
 66
     1
 10
0.0
 20
0.0
 30
0.0
  0
VERTEX
  5
175
330
174
100
AcDbEntity
  8
Layer 1
 62
     7
370
    25
100
AcDbVertex
100
AcDb2dVertex
 10
-34.60064425133248
 20
292.6284775744123
 30
0.0
  0
VERTEX
  5
176
330
174
100
AcDbEntity
  8
Layer 1
 62
     7
370
    25
100
AcDbVertex
100
AcDb2dVertex
 10
-41.65654431467267
 20
297.9201442397561
 30
0.0
  0
SEQEND
  5
177
330
174
100
AcDbEntity
  8
Layer 1
370
    25
  0
POLYLINE
  5
178
330
3C
100
AcDbEntity
  8
Layer 1
 62
     7
370
    25
100
AcDb2dPolyline
 66
     1
 10
0.0
 20
0.0
 30
0.0
  0
VERTEX
  5
179
330
178
100
AcDbEntity
  8
Layer 1
 62
     7
370
    25
100
AcDbVertex
100
AcDb2dVertex
 10
-41.65654431467267
 20
297.9201442397561
 30
0.0
  0
VERTEX
  5
17A
330
178
100
AcDbEntity
  8
Layer 1
 62
     7
370
    25
100
AcDbVertex
100
AcDb2dVertex
 10
-55.76765542225601
 20
297.9201442397561
 30
0.0
  0
SEQEND
  5
17B
330
178
100
AcDbEntity
  8
Layer 1
370
    25
  0
POLYLINE
  5
17C
330
3C
100
AcDbEntity
  8
Layer 1
 62
     7
370
    25
100
AcDb2dPolyline
 66
     1
 10
0.0
 20
0.0
 30
0.0
  0
VERTEX
  5
17D
330
17C
100
AcDbEntity
  8
Layer 1
 62
     7
370
    25
100
AcDbVertex
100
AcDb2dVertex
 10
-55.76765542225601
 20
297.9201442397561
 30
0.0
  0
VERTEX
  5
17E
330
17C
100
AcDbEntity
  8
Layer 1
 62
     7
370
    25
100
AcDbVertex
100
AcDb2dVertex
 10
-62.82303872127341
 20
292.6284775744123
 30
0.0
  0
SEQEND
  5
17F
330
17C
100
AcDbEntity
  8
Layer 1
370
    25
  0
POLYLINE
  5
180
330
3C
100
AcDbEntity
  8
Layer 1
 62
     7
370
    25
100
AcDb2dPolyline
 66
     1
 10
0.0
 20
0.0
 30
0.0
  0
VERTEX
  5
181
330
180
100
AcDbEntity
  8
Layer 1
 62
     7
370
    25
100
AcDbVertex
100
AcDb2dVertex
 10
-62.82303872127341
 20
292.6284775744123
 30
0.0
  0
VERTEX
  5
182
330
180
100
AcDbEntity
  8
Layer 1
 62
     7
370
    25
100
AcDbVertex
100
AcDb2dVertex
 10
-62.82303872127341
 20
276.7527885592841
 30
0.0
  0
SEQEND
  5
183
330
180
100
AcDbEntity
  8
Layer 1
370
    25
  0
POLYLINE
  5
184
330
3C
100
AcDbEntity
  8
Layer 1
 62
     7
370
    25
100
AcDb2dPolyline
 66
     1
 10
0.0
 20
0.0
 30
0.0
  0
VERTEX
  5
185
330
184
100
AcDbEntity
  8
Layer 1
 62
     7
370
    25
100
AcDbVertex
100
AcDb2dVertex
 10
-62.82303872127341
 20
276.7527885592841
 30
0.0
  0
VERTEX
  5
186
330
184
100
AcDbEntity
  8
Layer 1
 62
     7
370
    25
100
AcDbVertex
100
AcDb2dVertex
 10
-76.93414982885675
 20
276.7527885592841
 30
0.0
  0
SEQEND
  5
187
330
184
100
AcDbEntity
  8
Layer 1
370
    25
  0
POLYLINE
  5
188
330
3C
100
AcDbEntity
  8
Layer 1
 62
     7
370
    25
100
AcDb2dPolyline
 66
     1
 10
0.0
 20
0.0
 30
0.0
  0
VERTEX
  5
189
330
188
100
AcDbEntity
  8
Layer 1
 62
     7
370
    25
100
AcDbVertex
100
AcDb2dVertex
 10
-76.93414982885675
 20
276.7527885592841
 30
0.0
  0
VERTEX
  5
18A
330
188
100
AcDbEntity
  8
Layer 1
 62
     7
370
    25
100
AcDbVertex
100
AcDb2dVertex
 10
-76.93414982885675
 20
297.9201442397561
 30
0.0
  0
SEQEND
  5
18B
330
188
100
AcDbEntity
  8
Layer 1
370
    25
  0
POLYLINE
  5
18C
330
3C
100
AcDbEntity
  8
Layer 1
 62
     7
370
    15
100
AcDb2dPolyline
 66
     1
 10
0.0
 20
0.0
 30
0.0
  0
VERTEX
  5
18D
330
18C
100
AcDbEntity
  8
Layer 1
 62
     7
370
    15
100
AcDbVertex
100
AcDb2dVertex
 10
671.0529240943896
 20
639.5661293974001
 30
0.0
  0
VERTEX
  5
18E
330
18C
100
AcDbEntity
  8
Layer 1
 62
     7
370
    15
100
AcDbVertex
100
AcDb2dVertex
 10
671.0529240943896
 20
1074.565417211827
 30
0.0
  0
SEQEND
  5
18F
330
18C
100
AcDbEntity
  8
Layer 1
370
    15
  0
SPLINE
  5
190
330
3C
100
AcDbEntity
  8
Layer 1
 62
     7
370
    15
100
AcDbSpline
210
0.0
220
0.0
230
1.0
 70
     8
 71
     3
 72
     8
 73
     4
 74
     0
 42
0.0000000001
 43
0.0000000001
 40
0.0
 40
0.0
 40
0.0
 40
0.0
 40
1.0
 40
1.0
 40
1.0
 40
1.0
 10
661.0528454293549
 20
629.5660507323655
 30
0.0
 10
666.5756780017589
 20
629.5660507323655
 30
0.0
 10
671.0529240943896
 20
634.0429523154477
 30
0.0
 10
671.0529240943896
 20
639.5661293974001
 30
0.0
  0
POLYLINE
  5
191
330
3C
100
AcDbEntity
  8
Layer 1
 62
     7
370
    15
100
AcDb2dPolyline
 66
     1
 10
0.0
 20
0.0
 30
0.0
  0
VERTEX
  5
192
330
191
100
AcDbEntity
  8
Layer 1
 62
     7
370
    15
100
AcDbVertex
100
AcDb2dVertex
 10
131.0536715709692
 20
629.5660507323655
 30
0.0
  0
VERTEX
  5
193
330
191
100
AcDbEntity
  8
Layer 1
 62
     7
370
    15
100
AcDbVertex
100
AcDb2dVertex
 10
661.0528454293549
 20
629.5660507323655
 30
0.0
  0
SEQEND
  5
194
330
191
100
AcDbEntity
  8
Layer 1
370
    15
  0
SPLINE
  5
195
330
3C
100
AcDbEntity
  8
Layer 1
 62
     7
370
    15
100
AcDbSpline
210
0.0
220
0.0
230
1.0
 70
     8
 71
     3
 72
     8
 73
     4
 74
     0
 42
0.0000000001
 43
0.0000000001
 40
0.0
 40
0.0
 40
0.0
 40
0.0
 40
1.0
 40
1.0
 40
1.0
 40
1.0
 10
121.0534206511603
 20
639.5661293974001
 30
0.0
 10
121.0534206511603
 20
634.0429523154477
 30
0.0
 10
125.5306667437909
 20
629.5660507323655
 30
0.0
 10
131.0536715709692
 20
629.5660507323655
 30
0.0
  0
POLYLINE
  5
196
330
3C
100
AcDbEntity
  8
Layer 1
 62
     7
370
    15
100
AcDb2dPolyline
 66
     1
 10
0.0
 20
0.0
 30
0.0
  0
VERTEX
  5
197
330
196
100
AcDbEntity
  8
Layer 1
 62
     7
370
    15
100
AcDbVertex
100
AcDb2dVertex
 10
121.0534206511603
 20
1074.565417211827
 30
0.0
  0
VERTEX
  5
198
330
196
100
AcDbEntity
  8
Layer 1
 62
     7
370
    15
100
AcDbVertex
100
AcDb2dVertex
 10
121.0534206511603
 20
639.5661293974001
 30
0.0
  0
SEQEND
  5
199
330
196
100
AcDbEntity
  8
Layer 1
370
    15
  0
SPLINE
  5
19A
330
3C
100
AcDbEntity
  8
Layer 1
 62
     7
370
    15
100
AcDbSpline
210
0.0
220
0.0
230
1.0
 70
     8
 71
     3
 72
     8
 73
     4
 74
     0
 42
0.0000000001
 43
0.0000000001
 40
0.0
 40
0.0
 40
0.0
 40
0.0
 40
1.0
 40
1.0
 40
1.0
 40
1.0
 10
131.0536715709692
 20
1084.565668131636
 30
0.0
 10
125.5306667437909
 20
1084.565668131636
 30
0.0
 10
121.0534206511603
 20
1080.088422039006
 30
0.0
 10
121.0534206511603
 20
1074.565417211827
 30
0.0
  0
POLYLINE
  5
19B
330
3C
100
AcDbEntity
  8
Layer 1
 62
     7
370
    15
100
AcDb2dPolyline
 66
     1
 10
0.0
 20
0.0
 30
0.0
  0
VERTEX
  5
19C
330
19B
100
AcDbEntity
  8
Layer 1
 62
     7
370
    15
100
AcDbVertex
100
AcDb2dVertex
 10
661.0528454293549
 20
1084.565668131636
 30
0.0
  0
VERTEX
  5
19D
330
19B
100
AcDbEntity
  8
Layer 1
 62
     7
370
    15
100
AcDbVertex
100
AcDb2dVertex
 10
131.0536715709692
 20
1084.565668131636
 30
0.0
  0
SEQEND
  5
19E
330
19B
100
AcDbEntity
  8
Layer 1
370
    15
  0
SPLINE
  5
19F
330
3C
100
AcDbEntity
  8
Layer 1
 62
     7
370
    15
100
AcDbSpline
210
0.0
220
0.0
230
1.0
 70
     8
 71
     3
 72
     8
 73
     4
 74
     0
 42
0.0000000001
 43
0.0000000001
 40
0.0
 40
0.0
 40
0.0
 40
0.0
 40
1.0
 40
1.0
 40
1.0
 40
1.0
 10
671.0529240943896
 20
1074.565417211827
 30
0.0
 10
671.0529240943896
 20
1080.088422039006
 30
0.0
 10
666.5756780017589
 20
1084.565668131636
 30
0.0
 10
661.0528454293549
 20
1084.565668131636
 30
0.0
  0
SPLINE
  5
1A0
330
3C
100
AcDbEntity
  8
Layer 1
 62
     7
370
    15
100
AcDbSpline
210
0.0
220
0.0
230
1.0
 70
     8
 71
     3
 72
     8
 73
     4
 74
     0
 42
0.0000000001
 43
0.0000000001
 40
0.0
 40
0.0
 40
0.0
 40
0.0
 40
1.0
 40
1.0
 40
1.0
 40
1.0
 10
156.0535237240074
 20
1059.56547146905
 30
0.0
 10
150.5308634063777
 20
1059.56547146905
 30
0.0
 10
146.053617313747
 20
1055.088569885967
 30
0.0
 10
146.053617313747
 20
1049.565565058789
 30
0.0
  0
POLYLINE
  5
1A1
330
3C
100
AcDbEntity
  8
Layer 1
 62
     7
370
    15
100
AcDb2dPolyline
 66
     1
 10
0.0
 20
0.0
 30
0.0
  0
VERTEX
  5
1A2
330
1A1
100
AcDbEntity
  8
Layer 1
 62
     7
370
    15
100
AcDbVertex
100
AcDb2dVertex
 10
636.0531655310909
 20
1059.56547146905
 30
0.0
  0
VERTEX
  5
1A3
330
1A1
100
AcDbEntity
  8
Layer 1
 62
     7
370
    15
100
AcDbVertex
100
AcDb2dVertex
 10
156.0535237240074
 20
1059.56547146905
 30
0.0
  0
SEQEND
  5
1A4
330
1A1
100
AcDbEntity
  8
Layer 1
370
    15
  0
SPLINE
  5
1A5
330
3C
100
AcDbEntity
  8
Layer 1
 62
     7
370
    15
100
AcDbSpline
210
0.0
220
0.0
230
1.0
 70
     8
 71
     3
 72
     8
 73
     4
 74
     0
 42
0.0000000001
 43
0.0000000001
 40
0.0
 40
0.0
 40
0.0
 40
0.0
 40
1.0
 40
1.0
 40
1.0
 40
1.0
 10
646.0528996865771
 20
1049.565565058789
 30
0.0
 10
646.0528996865771
 20
1055.088569885967
 30
0.0
 10
641.5756535939464
 20
1059.56547146905
 30
0.0
 10
636.0531655310909
 20
1059.56547146905
 30
0.0
  0
POLYLINE
  5
1A6
330
3C
100
AcDbEntity
  8
Layer 1
 62
     7
370
    15
100
AcDb2dPolyline
 66
     1
 10
0.0
 20
0.0
 30
0.0
  0
VERTEX
  5
1A7
330
1A6
100
AcDbEntity
  8
Layer 1
 62
     7
370
    15
100
AcDbVertex
100
AcDb2dVertex
 10
646.0528996865771
 20
664.566326059987
 30
0.0
  0
VERTEX
  5
1A8
330
1A6
100
AcDbEntity
  8
Layer 1
 62
     7
370
    15
100
AcDbVertex
100
AcDb2dVertex
 10
646.0528996865771
 20
1049.565565058789
 30
0.0
  0
SEQEND
  5
1A9
330
1A6
100
AcDbEntity
  8
Layer 1
370
    15
  0
POLYLINE
  5
1AA
330
3C
100
AcDbEntity
  8
Layer 1
 62
     7
370
    15
100
AcDb2dPolyline
 66
     1
 10
0.0
 20
0.0
 30
0.0
  0
VERTEX
  5
1AB
330
1AA
100
AcDbEntity
  8
Layer 1
 62
     7
370
    15
100
AcDbVertex
100
AcDb2dVertex
 10
146.053617313747
 20
1049.565565058789
 30
0.0
  0
VERTEX
  5
1AC
330
1AA
100
AcDbEntity
  8
Layer 1
 62
     7
370
    15
100
AcDbVertex
100
AcDb2dVertex
 10
146.053617313747
 20
664.566326059987
 30
0.0
  0
SEQEND
  5
1AD
330
1AA
100
AcDbEntity
  8
Layer 1
370
    15
  0
SPLINE
  5
1AE
330
3C
100
AcDbEntity
  8
Layer 1
 62
     7
370
    15
100
AcDbSpline
210
0.0
220
0.0
230
1.0
 70
     8
 71
     3
 72
     8
 73
     4
 74
     0
 42
0.0000000001
 43
0.0000000001
 40
0.0
 40
0.0
 40
0.0
 40
0.0
 40
1.0
 40
1.0
 40
1.0
 40
1.0
 10
146.053617313747
 20
664.566326059987
 30
0.0
 10
146.053617313747
 20
659.0433212328087
 30
0.0
 10
150.5308634063777
 20
654.566075140178
 30
0.0
 10
156.0535237240074
 20
654.566075140178
 30
0.0
  0
SPLINE
  5
1AF
330
3C
100
AcDbEntity
  8
Layer 1
 62
     7
370
    15
100
AcDbSpline
210
0.0
220
0.0
230
1.0
 70
     8
 71
     3
 72
     8
 73
     4
 74
     0
 42
0.0000000001
 43
0.0000000001
 40
0.0
 40
0.0
 40
0.0
 40
0.0
 40
1.0
 40
1.0
 40
1.0
 40
1.0
 10
636.0531655310909
 20
654.566075140178
 30
0.0
 10
641.5756535939464
 20
654.566075140178
 30
0.0
 10
646.0528996865771
 20
659.0433212328087
 30
0.0
 10
646.0528996865771
 20
664.566326059987
 30
0.0
  0
POLYLINE
  5
1B0
330
3C
100
AcDbEntity
  8
Layer 1
 62
     7
370
    15
100
AcDb2dPolyline
 66
     1
 10
0.0
 20
0.0
 30
0.0
  0
VERTEX
  5
1B1
330
1B0
100
AcDbEntity
  8
Layer 1
 62
     7
370
    15
100
AcDbVertex
100
AcDb2dVertex
 10
156.0535237240074
 20
654.566075140178
 30
0.0
  0
VERTEX
  5
1B2
330
1B0
100
AcDbEntity
  8
Layer 1
 62
     7
370
    15
100
AcDbVertex
100
AcDb2dVertex
 10
636.0531655310909
 20
654.566075140178
 30
0.0
  0
SEQEND
  5
1B3
330
1B0
100
AcDbEntity
  8
Layer 1
370
    15
  0
POLYLINE
  5
1B4
330
3C
100
AcDbEntity
  8
Layer 1
 62
     7
370
    15
100
AcDb2dPolyline
 66
     1
 10
0.0
 20
0.0
 30
0.0
  0
VERTEX
  5
1B5
330
1B4
100
AcDbEntity
  8
Layer 1
 62
     7
370
    15
100
AcDbVertex
100
AcDb2dVertex
 10
156.0535237240074
 20
1059.56547146905
 30
0.0
  0
VERTEX
  5
1B6
330
1B4
100
AcDbEntity
  8
Layer 1
 62
     7
370
    15
100
AcDbVertex
100
AcDb2dVertex
 10
156.0535237240074
 20
1049.565565058789
 30
0.0
  0
SEQEND
  5
1B7
330
1B4
100
AcDbEntity
  8
Layer 1
370
    15
  0
POLYLINE
  5
1B8
330
3C
100
AcDbEntity
  8
Layer 1
 62
     7
370
    15
100
AcDb2dPolyline
 66
     1
 10
0.0
 20
0.0
 30
0.0
  0
VERTEX
  5
1B9
330
1B8
100
AcDbEntity
  8
Layer 1
 62
     7
370
    15
100
AcDbVertex
100
AcDb2dVertex
 10
146.053617313747
 20
1049.565565058789
 30
0.0
  0
VERTEX
  5
1BA
330
1B8
100
AcDbEntity
  8
Layer 1
 62
     7
370
    15
100
AcDbVertex
100
AcDb2dVertex
 10
156.0535237240074
 20
1049.565565058789
 30
0.0
  0
SEQEND
  5
1BB
330
1B8
100
AcDbEntity
  8
Layer 1
370
    15
  0
POLYLINE
  5
1BC
330
3C
100
AcDbEntity
  8
Layer 1
 62
     7
370
    15
100
AcDb2dPolyline
 66
     1
 10
0.0
 20
0.0
 30
0.0
  0
VERTEX
  5
1BD
330
1BC
100
AcDbEntity
  8
Layer 1
 62
     7
370
    15
100
AcDbVertex
100
AcDb2dVertex
 10
636.0531655310909
 20
1059.56547146905
 30
0.0
  0
VERTEX
  5
1BE
330
1BC
100
AcDbEntity
  8
Layer 1
 62
     7
370
    15
100
AcDbVertex
100
AcDb2dVertex
 10
636.0531655310909
 20
1049.565565058789
 30
0.0
  0
SEQEND
  5
1BF
330
1BC
100
AcDbEntity
  8
Layer 1
370
    15
  0
POLYLINE
  5
1C0
330
3C
100
AcDbEntity
  8
Layer 1
 62
     7
370
    15
100
AcDb2dPolyline
 66
     1
 10
0.0
 20
0.0
 30
0.0
  0
VERTEX
  5
1C1
330
1C0
100
AcDbEntity
  8
Layer 1
 62
     7
370
    15
100
AcDbVertex
100
AcDb2dVertex
 10
636.0531655310909
 20
1049.565565058789
 30
0.0
  0
VERTEX
  5
1C2
330
1C0
100
AcDbEntity
  8
Layer 1
 62
     7
370
    15
100
AcDbVertex
100
AcDb2dVertex
 10
646.0528996865771
 20
1049.565565058789
 30
0.0
  0
SEQEND
  5
1C3
330
1C0
100
AcDbEntity
  8
Layer 1
370
    15
  0
POLYLINE
  5
1C4
330
3C
100
AcDbEntity
  8
Layer 1
 62
     7
370
    15
100
AcDb2dPolyline
 66
     1
 10
0.0
 20
0.0
 30
0.0
  0
VERTEX
  5
1C5
330
1C4
100
AcDbEntity
  8
Layer 1
 62
     7
370
    15
100
AcDbVertex
100
AcDb2dVertex
 10
636.0531655310909
 20
1049.565565058789
 30
0.0
  0
VERTEX
  5
1C6
330
1C4
100
AcDbEntity
  8
Layer 1
 62
     7
370
    15
100
AcDbVertex
100
AcDb2dVertex
 10
156.0535237240074
 20
1049.565565058789
 30
0.0
  0
SEQEND
  5
1C7
330
1C4
100
AcDbEntity
  8
Layer 1
370
    15
  0
POLYLINE
  5
1C8
330
3C
100
AcDbEntity
  8
Layer 1
 62
     7
370
    15
100
AcDb2dPolyline
 66
     1
 10
0.0
 20
0.0
 30
0.0
  0
VERTEX
  5
1C9
330
1C8
100
AcDbEntity
  8
Layer 1
 62
     7
370
    15
100
AcDbVertex
100
AcDb2dVertex
 10
636.0531655310909
 20
664.566326059987
 30
0.0
  0
VERTEX
  5
1CA
330
1C8
100
AcDbEntity
  8
Layer 1
 62
     7
370
    15
100
AcDbVertex
100
AcDb2dVertex
 10
636.0531655310909
 20
1049.565565058789
 30
0.0
  0
SEQEND
  5
1CB
330
1C8
100
AcDbEntity
  8
Layer 1
370
    15
  0
POLYLINE
  5
1CC
330
3C
100
AcDbEntity
  8
Layer 1
 62
     7
370
    15
100
AcDb2dPolyline
 66
     1
 10
0.0
 20
0.0
 30
0.0
  0
VERTEX
  5
1CD
330
1CC
100
AcDbEntity
  8
Layer 1
 62
     7
370
    15
100
AcDbVertex
100
AcDb2dVertex
 10
636.0531655310909
 20
664.566326059987
 30
0.0
  0
VERTEX
  5
1CE
330
1CC
100
AcDbEntity
  8
Layer 1
 62
     7
370
    15
100
AcDbVertex
100
AcDb2dVertex
 10
646.0528996865771
 20
664.566326059987
 30
0.0
  0
SEQEND
  5
1CF
330
1CC
100
AcDbEntity
  8
Layer 1
370
    15
  0
POLYLINE
  5
1D0
330
3C
100
AcDbEntity
  8
Layer 1
 62
     7
370
    15
100
AcDb2dPolyline
 66
     1
 10
0.0
 20
0.0
 30
0.0
  0
VERTEX
  5
1D1
330
1D0
100
AcDbEntity
  8
Layer 1
 62
     7
370
    15
100
AcDbVertex
100
AcDb2dVertex
 10
156.0535237240074
 20
1049.565565058789
 30
0.0
  0
VERTEX
  5
1D2
330
1D0
100
AcDbEntity
  8
Layer 1
 62
     7
370
    15
100
AcDbVertex
100
AcDb2dVertex
 10
156.0535237240074
 20
664.566326059987
 30
0.0
  0
SEQEND
  5
1D3
330
1D0
100
AcDbEntity
  8
Layer 1
370
    15
  0
POLYLINE
  5
1D4
330
3C
100
AcDbEntity
  8
Layer 1
 62
     7
370
    15
100
AcDb2dPolyline
 66
     1
 10
0.0
 20
0.0
 30
0.0
  0
VERTEX
  5
1D5
330
1D4
100
AcDbEntity
  8
Layer 1
 62
     7
370
    15
100
AcDbVertex
100
AcDb2dVertex
 10
146.053617313747
 20
664.566326059987
 30
0.0
  0
VERTEX
  5
1D6
330
1D4
100
AcDbEntity
  8
Layer 1
 62
     7
370
    15
100
AcDbVertex
100
AcDb2dVertex
 10
156.0535237240074
 20
664.566326059987
 30
0.0
  0
SEQEND
  5
1D7
330
1D4
100
AcDbEntity
  8
Layer 1
370
    15
  0
POLYLINE
  5
1D8
330
3C
100
AcDbEntity
  8
Layer 1
 62
     7
370
    15
100
AcDb2dPolyline
 66
     1
 10
0.0
 20
0.0
 30
0.0
  0
VERTEX
  5
1D9
330
1D8
100
AcDbEntity
  8
Layer 1
 62
     7
370
    15
100
AcDbVertex
100
AcDb2dVertex
 10
156.0535237240074
 20
664.566326059987
 30
0.0
  0
VERTEX
  5
1DA
330
1D8
100
AcDbEntity
  8
Layer 1
 62
     7
370
    15
100
AcDbVertex
100
AcDb2dVertex
 10
636.0531655310909
 20
664.566326059987
 30
0.0
  0
SEQEND
  5
1DB
330
1D8
100
AcDbEntity
  8
Layer 1
370
    15
  0
POLYLINE
  5
1DC
330
3C
100
AcDbEntity
  8
Layer 1
 62
     7
370
    15
100
AcDb2dPolyline
 66
     1
 10
0.0
 20
0.0
 30
0.0
  0
VERTEX
  5
1DD
330
1DC
100
AcDbEntity
  8
Layer 1
 62
     7
370
    15
100
AcDbVertex
100
AcDb2dVertex
 10
636.0531655310909
 20
664.566326059987
 30
0.0
  0
VERTEX
  5
1DE
330
1DC
100
AcDbEntity
  8
Layer 1
 62
     7
370
    15
100
AcDbVertex
100
AcDb2dVertex
 10
636.0531655310909
 20
654.566075140178
 30
0.0
  0
SEQEND
  5
1DF
330
1DC
100
AcDbEntity
  8
Layer 1
370
    15
  0
POLYLINE
  5
1E0
330
3C
100
AcDbEntity
  8
Layer 1
 62
     7
370
    15
100
AcDb2dPolyline
 66
     1
 10
0.0
 20
0.0
 30
0.0
  0
VERTEX
  5
1E1
330
1E0
100
AcDbEntity
  8
Layer 1
 62
     7
370
    15
100
AcDbVertex
100
AcDb2dVertex
 10
156.0535237240074
 20
664.566326059987
 30
0.0
  0
VERTEX
  5
1E2
330
1E0
100
AcDbEntity
  8
Layer 1
 62
     7
370
    15
100
AcDbVertex
100
AcDb2dVertex
 10
156.0535237240074
 20
654.566075140178
 30
0.0
  0
SEQEND
  5
1E3
330
1E0
100
AcDbEntity
  8
Layer 1
370
    15
  0
POLYLINE
  5
1E4
330
3C
100
AcDbEntity
  8
Layer 1
 62
     7
370
    15
100
AcDb2dPolyline
 66
     1
 10
0.0
 20
0.0
 30
0.0
  0
VERTEX
  5
1E5
330
1E4
100
AcDbEntity
  8
Layer 1
 62
     7
370
    15
100
AcDbVertex
100
AcDb2dVertex
 10
636.0531655310909
 20
664.566326059987
 30
0.0
  0
VERTEX
  5
1E6
330
1E4
100
AcDbEntity
  8
Layer 1
 62
     7
370
    15
100
AcDbVertex
100
AcDb2dVertex
 10
543.582668592403
 20
759.9038314614997
 30
0.0
  0
VERTEX
  5
1E7
330
1E4
100
AcDbEntity
  8
Layer 1
 62
     7
370
    15
100
AcDbVertex
100
AcDb2dVertex
 10
451.1118271441665
 20
855.2413368630126
 30
0.0
  0
SEQEND
  5
1E8
330
1E4
100
AcDbEntity
  8
Layer 1
370
    15
  0
SPLINE
  5
1E9
330
3C
100
AcDbEntity
  8
Layer 1
 62
     7
370
    15
100
AcDbSpline
210
0.0
220
0.0
230
1.0
 70
     8
 71
     3
 72
     8
 73
     4
 74
     0
 42
0.0000000001
 43
0.0000000001
 40
0.0
 40
0.0
 40
0.0
 40
0.0
 40
1.0
 40
1.0
 40
1.0
 40
1.0
 10
455.0533608888409
 20
864.5656600486155
 30
0.0
 10
455.0533608888409
 20
862.8329492743092
 30
0.0
 10
454.7023056588939
 20
861.100410754777
 30
0.0
 10
454.0274114533335
 20
859.5039535069122
 30
0.0
  0
SPLINE
  5
1EA
330
3C
100
AcDbEntity
  8
Layer 1
 62
     7
370
    15
100
AcDbSpline
210
0.0
220
0.0
230
1.0
 70
     8
 71
     3
 72
     8
 73
     4
 74
     0
 42
0.0000000001
 43
0.0000000001
 40
0.0
 40
0.0
 40
0.0
 40
0.0
 40
1.0
 40
1.0
 40
1.0
 40
1.0
 10
454.0274114533335
 20
859.5039535069122
 30
0.0
 10
453.3521727382245
 20
857.9076685138217
 30
0.0
 10
452.3544730856961
 20
856.4488428305926
 30
0.0
 10
451.1118271441665
 20
855.2413368630126
 30
0.0
  0
POLYLINE
  5
1EB
330
3C
100
AcDbEntity
  8
Layer 1
 62
     7
370
    15
100
AcDb2dPolyline
 66
     1
 10
0.0
 20
0.0
 30
0.0
  0
VERTEX
  5
1EC
330
1EB
100
AcDbEntity
  8
Layer 1
 62
     7
370
    15
100
AcDbVertex
100
AcDb2dVertex
 10
455.0533608888409
 20
956.5657291987926
 30
0.0
  0
VERTEX
  5
1ED
330
1EB
100
AcDbEntity
  8
Layer 1
 62
     7
370
    15
100
AcDbVertex
100
AcDb2dVertex
 10
455.0533608888409
 20
864.5656600486155
 30
0.0
  0
SEQEND
  5
1EE
330
1EB
100
AcDbEntity
  8
Layer 1
370
    15
  0
SPLINE
  5
1EF
330
3C
100
AcDbEntity
  8
Layer 1
 62
     7
370
    15
100
AcDbSpline
210
0.0
220
0.0
230
1.0
 70
     8
 71
     3
 72
     8
 73
     4
 74
     0
 42
0.0000000001
 43
0.0000000001
 40
0.0
 40
0.0
 40
0.0
 40
0.0
 40
1.0
 40
1.0
 40
1.0
 40
1.0
 10
450.72563194027
 20
966.2502371173784
 30
0.0
 10
451.4036267317672
 20
965.6430390381032
 30
0.0
 10
452.0185762758842
 20
964.9641829727346
 30
0.0
 10
452.5549776429377
 20
964.2283105770854
 30
0.0
  0
SPLINE
  5
1F0
330
3C
100
AcDbEntity
  8
Layer 1
 62
     7
370
    15
100
AcDbSpline
210
0.0
220
0.0
230
1.0
 70
     8
 71
     3
 72
     8
 73
     4
 74
     0
 42
0.0000000001
 43
0.0000000001
 40
0.0
 40
0.0
 40
0.0
 40
0.0
 40
1.0
 40
1.0
 40
1.0
 40
1.0
 10
452.5549776429377
 20
964.2283105770854
 30
0.0
 10
453.0917235195396
 20
963.4929549457587
 30
0.0
 10
453.5509547477234
 20
962.7005829841513
 30
0.0
 10
453.9219915314848
 20
961.8694536983347
 30
0.0
  0
SPLINE
  5
1F1
330
3C
100
AcDbEntity
  8
Layer 1
 62
     7
370
    15
100
AcDbSpline
210
0.0
220
0.0
230
1.0
 70
     8
 71
     3
 72
     8
 73
     4
 74
     0
 42
0.0000000001
 43
0.0000000001
 40
0.0
 40
0.0
 40
0.0
 40
0.0
 40
1.0
 40
1.0
 40
1.0
 40
1.0
 10
453.9219915314848
 20
961.8694536983347
 30
0.0
 10
454.2937173343433
 20
961.0383244125183
 30
0.0
 10
454.5775932023278
 20
960.1677487833956
 30
0.0
 10
454.7670734540166
 20
959.2771916004585
 30
0.0
  0
SPLINE
  5
1F2
330
3C
100
AcDbEntity
  8
Layer 1
 62
     7
370
    15
100
AcDbSpline
210
0.0
220
0.0
230
1.0
 70
     8
 71
     3
 72
     8
 73
     4
 74
     0
 42
0.0000000001
 43
0.0000000001
 40
0.0
 40
0.0
 40
0.0
 40
0.0
 40
1.0
 40
1.0
 40
1.0
 40
1.0
 10
454.7670734540166
 20
959.2771916004585
 30
0.0
 10
454.9575872343509
 20
958.3866344175215
 30
0.0
 10
455.0533608888409
 20
957.47609568077
 30
0.0
 10
455.0533608888409
 20
956.5657291987926
 30
0.0
  0
POLYLINE
  5
1F3
330
3C
100
AcDbEntity
  8
Layer 1
 62
     7
370
    15
100
AcDb2dPolyline
 66
     1
 10
0.0
 20
0.0
 30
0.0
  0
VERTEX
  5
1F4
330
1F3
100
AcDbEntity
  8
Layer 1
 62
     7
370
    15
100
AcDbVertex
100
AcDb2dVertex
 10
636.0531655310909
 20
1049.565565058789
 30
0.0
  0
VERTEX
  5
1F5
330
1F3
100
AcDbEntity
  8
Layer 1
 62
     7
370
    15
100
AcDbVertex
100
AcDb2dVertex
 10
543.3893987356804
 20
1007.907642705922
 30
0.0
  0
VERTEX
  5
1F6
330
1F3
100
AcDbEntity
  8
Layer 1
 62
     7
370
    15
100
AcDbVertex
100
AcDb2dVertex
 10
450.72563194027
 20
966.2502371173784
 30
0.0
  0
SEQEND
  5
1F7
330
1F3
100
AcDbEntity
  8
Layer 1
370
    15
  0
SPLINE
  5
1F8
330
3C
100
AcDbEntity
  8
Layer 1
 62
     7
370
    15
100
AcDbSpline
210
0.0
220
0.0
230
1.0
 70
     8
 71
     3
 72
     8
 73
     4
 74
     0
 42
0.0000000001
 43
0.0000000001
 40
0.0
 40
0.0
 40
0.0
 40
0.0
 40
1.0
 40
1.0
 40
1.0
 40
1.0
 10
442.0532930752506
 20
969.5657970123829
 30
0.0
 10
443.6356254316258
 20
969.5657970123829
 30
0.0
 10
445.2176132784526
 20
969.273825170008
 30
0.0
 10
446.6952147320762
 20
968.7084850008785
 30
0.0
  0
SPLINE
  5
1F9
330
3C
100
AcDbEntity
  8
Layer 1
 62
     7
370
    15
100
AcDbSpline
210
0.0
220
0.0
230
1.0
 70
     8
 71
     3
 72
     8
 73
     4
 74
     0
 42
0.0000000001
 43
0.0000000001
 40
0.0
 40
0.0
 40
0.0
 40
0.0
 40
1.0
 40
1.0
 40
1.0
 40
1.0
 10
446.6952147320762
 20
968.7084850008785
 30
0.0
 10
448.1735052047969
 20
968.1436615960718
 30
0.0
 10
449.5470647747661
 20
967.3059866288332
 30
0.0
 10
450.72563194027
 20
966.2502371173784
 30
0.0
  0
POLYLINE
  5
1FA
330
3C
100
AcDbEntity
  8
Layer 1
 62
     7
370
    15
100
AcDb2dPolyline
 66
     1
 10
0.0
 20
0.0
 30
0.0
  0
VERTEX
  5
1FB
330
1FA
100
AcDbEntity
  8
Layer 1
 62
     7
370
    15
100
AcDbVertex
100
AcDb2dVertex
 10
350.0532239250735
 20
969.5657970123829
 30
0.0
  0
VERTEX
  5
1FC
330
1FA
100
AcDbEntity
  8
Layer 1
 62
     7
370
    15
100
AcDbVertex
100
AcDb2dVertex
 10
442.0532930752506
 20
969.5657970123829
 30
0.0
  0
SEQEND
  5
1FD
330
1FA
100
AcDbEntity
  8
Layer 1
370
    15
  0
SPLINE
  5
1FE
330
3C
100
AcDbEntity
  8
Layer 1
 62
     7
370
    15
100
AcDbSpline
210
0.0
220
0.0
230
1.0
 70
     8
 71
     3
 72
     8
 73
     4
 74
     0
 42
0.0000000001
 43
0.0000000001
 40
0.0
 40
0.0
 40
0.0
 40
0.0
 40
1.0
 40
1.0
 40
1.0
 40
1.0
 10
341.3807128052798
 20
966.2502371173784
 30
0.0
 10
342.5594522255581
 20
967.3059866288332
 30
0.0
 10
343.9330117955272
 20
968.1436615960718
 30
0.0
 10
345.4113022682479
 20
968.7084850008785
 30
0.0
  0
SPLINE
  5
1FF
330
3C
100
AcDbEntity
  8
Layer 1
 62
     7
370
    15
100
AcDbSpline
210
0.0
220
0.0
230
1.0
 70
     8
 71
     3
 72
     8
 73
     4
 74
     0
 42
0.0000000001
 43
0.0000000001
 40
0.0
 40
0.0
 40
0.0
 40
0.0
 40
1.0
 40
1.0
 40
1.0
 40
1.0
 10
345.4113022682479
 20
968.7084850008785
 30
0.0
 10
346.8890759766458
 20
969.273825170008
 30
0.0
 10
348.4708915686983
 20
969.5657970123829
 30
0.0
 10
350.0532239250735
 20
969.5657970123829
 30
0.0
  0
POLYLINE
  5
200
330
3C
100
AcDbEntity
  8
Layer 1
 62
     7
370
    15
100
AcDb2dPolyline
 66
     1
 10
0.0
 20
0.0
 30
0.0
  0
VERTEX
  5
201
330
200
100
AcDbEntity
  8
Layer 1
 62
     7
370
    15
100
AcDbVertex
100
AcDb2dVertex
 10
341.3807128052798
 20
966.2502371173784
 30
0.0
  0
VERTEX
  5
202
330
200
100
AcDbEntity
  8
Layer 1
 62
     7
370
    15
100
AcDbVertex
100
AcDb2dVertex
 10
248.7172905194179
 20
1007.907642705922
 30
0.0
  0
VERTEX
  5
203
330
200
100
AcDbEntity
  8
Layer 1
 62
     7
370
    15
100
AcDbVertex
100
AcDb2dVertex
 10
156.0535237240074
 20
1049.565565058789
 30
0.0
  0
SEQEND
  5
204
330
200
100
AcDbEntity
  8
Layer 1
370
    15
  0
SPLINE
  5
205
330
3C
100
AcDbEntity
  8
Layer 1
 62
     7
370
    15
100
AcDbSpline
210
0.0
220
0.0
230
1.0
 70
     8
 71
     3
 72
     8
 73
     4
 74
     0
 42
0.0000000001
 43
0.0000000001
 40
0.0
 40
0.0
 40
0.0
 40
0.0
 40
1.0
 40
1.0
 40
1.0
 40
1.0
 10
337.0531561114832
 20
956.5657291987926
 30
0.0
 10
337.0531561114832
 20
957.47609568077
 30
0.0
 10
337.1492742755217
 20
958.3866344175215
 30
0.0
 10
337.3392712915332
 20
959.2771916004585
 30
0.0
  0
SPLINE
  5
206
330
3C
100
AcDbEntity
  8
Layer 1
 62
     7
370
    15
100
AcDbSpline
210
0.0
220
0.0
230
1.0
 70
     8
 71
     3
 72
     8
 73
     4
 74
     0
 42
0.0000000001
 43
0.0000000001
 40
0.0
 40
0.0
 40
0.0
 40
0.0
 40
1.0
 40
1.0
 40
1.0
 40
1.0
 10
337.3392712915332
 20
959.2771916004585
 30
0.0
 10
337.5289237979962
 20
960.1677487833956
 30
0.0
 10
337.8131441755294
 20
961.0383244125183
 30
0.0
 10
338.1845254688393
 20
961.8694536983347
 30
0.0
  0
SPLINE
  5
207
330
3C
100
AcDbEntity
  8
Layer 1
 62
     7
370
    15
100
AcDbSpline
210
0.0
220
0.0
230
1.0
 70
     8
 71
     3
 72
     8
 73
     4
 74
     0
 42
0.0000000001
 43
0.0000000001
 40
0.0
 40
0.0
 40
0.0
 40
0.0
 40
1.0
 40
1.0
 40
1.0
 40
1.0
 10
338.1845254688393
 20
961.8694536983347
 30
0.0
 10
338.5559067621492
 20
962.7005829841513
 30
0.0
 10
339.015137990333
 20
963.4929549457587
 30
0.0
 10
339.5517116121607
 20
964.2283105770854
 30
0.0
  0
SPLINE
  5
208
330
3C
100
AcDbEntity
  8
Layer 1
 62
     7
370
    15
100
AcDbSpline
210
0.0
220
0.0
230
1.0
 70
     8
 71
     3
 72
     8
 73
     4
 74
     0
 42
0.0000000001
 43
0.0000000001
 40
0.0
 40
0.0
 40
0.0
 40
0.0
 40
1.0
 40
1.0
 40
1.0
 40
1.0
 10
339.5517116121607
 20
964.2283105770854
 30
0.0
 10
340.0882852339884
 20
964.9641829727346
 30
0.0
 10
340.7027180137827
 20
965.6430390381032
 30
0.0
 10
341.3807128052798
 20
966.2502371173784
 30
0.0
  0
POLYLINE
  5
209
330
3C
100
AcDbEntity
  8
Layer 1
 62
     7
370
    15
100
AcDb2dPolyline
 66
     1
 10
0.0
 20
0.0
 30
0.0
  0
VERTEX
  5
20A
330
209
100
AcDbEntity
  8
Layer 1
 62
     7
370
    15
100
AcDbVertex
100
AcDb2dVertex
 10
337.0531561114832
 20
956.5657291987926
 30
0.0
  0
VERTEX
  5
20B
330
209
100
AcDbEntity
  8
Layer 1
 62
     7
370
    15
100
AcDbVertex
100
AcDb2dVertex
 10
337.0531561114832
 20
864.5656600486155
 30
0.0
  0
SEQEND
  5
20C
330
209
100
AcDbEntity
  8
Layer 1
370
    15
  0
SPLINE
  5
20D
330
3C
100
AcDbEntity
  8
Layer 1
 62
     7
370
    15
100
AcDbSpline
210
0.0
220
0.0
230
1.0
 70
     8
 71
     3
 72
     8
 73
     4
 74
     0
 42
0.0000000001
 43
0.0000000001
 40
0.0
 40
0.0
 40
0.0
 40
0.0
 40
1.0
 40
1.0
 40
1.0
 40
1.0
 10
340.9950343657061
 20
855.2413368630126
 30
0.0
 10
339.7518716598537
 20
856.4488428305926
 30
0.0
 10
338.7539997525511
 20
857.9076685138217
 30
0.0
 10
338.0792778017649
 20
859.5039535069122
 30
0.0
  0
SPLINE
  5
20E
330
3C
100
AcDbEntity
  8
Layer 1
 62
     7
370
    15
100
AcDbSpline
210
0.0
220
0.0
230
1.0
 70
     8
 71
     3
 72
     8
 73
     4
 74
     0
 42
0.0000000001
 43
0.0000000001
 40
0.0
 40
0.0
 40
0.0
 40
0.0
 40
1.0
 40
1.0
 40
1.0
 40
1.0
 10
338.0792778017649
 20
859.5039535069122
 30
0.0
 10
337.4045558509787
 20
861.100410754777
 30
0.0
 10
337.0531561114832
 20
862.8329492743092
 30
0.0
 10
337.0531561114832
 20
864.5656600486155
 30
0.0
  0
POLYLINE
  5
20F
330
3C
100
AcDbEntity
  8
Layer 1
 62
     7
370
    15
100
AcDb2dPolyline
 66
     1
 10
0.0
 20
0.0
 30
0.0
  0
VERTEX
  5
210
330
20F
100
AcDbEntity
  8
Layer 1
 62
     7
370
    15
100
AcDbVertex
100
AcDb2dVertex
 10
156.0535237240074
 20
664.566326059987
 30
0.0
  0
VERTEX
  5
211
330
20F
100
AcDbEntity
  8
Layer 1
 62
     7
370
    15
100
AcDbVertex
100
AcDb2dVertex
 10
248.5243651722439
 20
759.9038314614997
 30
0.0
  0
VERTEX
  5
212
330
20F
100
AcDbEntity
  8
Layer 1
 62
     7
370
    15
100
AcDbVertex
100
AcDb2dVertex
 10
340.9950343657061
 20
855.2413368630126
 30
0.0
  0
SEQEND
  5
213
330
20F
100
AcDbEntity
  8
Layer 1
370
    15
  0
SPLINE
  5
214
330
3C
100
AcDbEntity
  8
Layer 1
 62
     7
370
    15
100
AcDbSpline
210
0.0
220
0.0
230
1.0
 70
     8
 71
     3
 72
     8
 73
     4
 74
     0
 42
0.0000000001
 43
0.0000000001
 40
0.0
 40
0.0
 40
0.0
 40
0.0
 40
1.0
 40
1.0
 40
1.0
 40
1.0
 10
350.0532239250735
 20
851.5661089993481
 30
0.0
 10
348.3828693790501
 20
851.5661089993481
 30
0.0
 10
346.7132038521238
 20
851.8916705227042
 30
0.0
 10
345.1658392149238
 20
852.5198836844395
 30
0.0
  0
SPLINE
  5
215
330
3C
100
AcDbEntity
  8
Layer 1
 62
     7
370
    15
100
AcDbSpline
210
0.0
220
0.0
230
1.0
 70
     8
 71
     3
 72
     8
 73
     4
 74
     0
 42
0.0000000001
 43
0.0000000001
 40
0.0
 40
0.0
 40
0.0
 40
0.0
 40
1.0
 40
1.0
 40
1.0
 40
1.0
 10
345.1658392149238
 20
852.5198836844395
 30
0.0
 10
343.6176133038526
 20
853.1474078270778
 30
0.0
 10
342.1934108302503
 20
854.0775836080952
 30
0.0
 10
340.9950343657061
 20
855.2413368630126
 30
0.0
  0
POLYLINE
  5
216
330
3C
100
AcDbEntity
  8
Layer 1
 62
     7
370
    15
100
AcDb2dPolyline
 66
     1
 10
0.0
 20
0.0
 30
0.0
  0
VERTEX
  5
217
330
216
100
AcDbEntity
  8
Layer 1
 62
     7
370
    15
100
AcDbVertex
100
AcDb2dVertex
 10
350.0532239250735
 20
851.5661089993481
 30
0.0
  0
VERTEX
  5
218
330
216
100
AcDbEntity
  8
Layer 1
 62
     7
370
    15
100
AcDbVertex
100
AcDb2dVertex
 10
442.0532930752506
 20
851.5661089993481
 30
0.0
  0
SEQEND
  5
219
330
216
100
AcDbEntity
  8
Layer 1
370
    15
  0
SPLINE
  5
21A
330
3C
100
AcDbEntity
  8
Layer 1
 62
     7
370
    15
100
AcDbSpline
210
0.0
220
0.0
230
1.0
 70
     8
 71
     3
 72
     8
 73
     4
 74
     0
 42
0.0000000001
 43
0.0000000001
 40
0.0
 40
0.0
 40
0.0
 40
0.0
 40
1.0
 40
1.0
 40
1.0
 40
1.0
 10
451.1118271441665
 20
855.2413368630126
 30
0.0
 10
449.9129339152996
 20
854.0775836080952
 30
0.0
 10
448.4887314416973
 20
853.1474078270778
 30
0.0
 10
446.940505530626
 20
852.5198836844395
 30
0.0
  0
SPLINE
  5
21B
330
3C
100
AcDbEntity
  8
Layer 1
 62
     7
370
    15
100
AcDbSpline
210
0.0
220
0.0
230
1.0
 70
     8
 71
     3
 72
     8
 73
     4
 74
     0
 42
0.0000000001
 43
0.0000000001
 40
0.0
 40
0.0
 40
0.0
 40
0.0
 40
1.0
 40
1.0
 40
1.0
 40
1.0
 10
446.940505530626
 20
852.5198836844395
 30
0.0
 10
445.3933131482003
 20
851.8916705227042
 30
0.0
 10
443.7234753664997
 20
851.5661089993481
 30
0.0
 10
442.0532930752506
 20
851.5661089993481
 30
0.0
  0
SPLINE
  5
21C
330
3C
100
AcDbEntity
  8
Layer 1
 62
     7
370
    15
100
AcDbSpline
210
0.0
220
0.0
230
1.0
 70
     8
 71
     3
 72
     8
 73
     4
 74
     0
 42
0.0000000001
 43
0.0000000001
 40
0.0
 40
0.0
 40
0.0
 40
0.0
 40
1.0
 40
1.0
 40
1.0
 40
1.0
 10
431.1454317498525
 20
953.9381548721926
 30
0.0
 10
430.6186766501579
 20
954.0229042211297
 30
0.0
 10
430.0864093976867
 20
954.0657956599212
 30
0.0
 10
429.5531086165701
 20
954.0657956599212
 30
0.0
  0
POLYLINE
  5
21D
330
3C
100
AcDbEntity
  8
Layer 1
 62
     7
370
    15
100
AcDb2dPolyline
 66
     1
 10
0.0
 20
0.0
 30
0.0
  0
VERTEX
  5
21E
330
21D
100
AcDbEntity
  8
Layer 1
 62
     7
370
    15
100
AcDbVertex
100
AcDb2dVertex
 10
429.5531086165701
 20
954.0657956599212
 30
0.0
  0
VERTEX
  5
21F
330
21D
100
AcDbEntity
  8
Layer 1
 62
     7
370
    15
100
AcDbVertex
100
AcDb2dVertex
 10
362.553408383754
 20
954.0657956599212
 30
0.0
  0
SEQEND
  5
220
330
21D
100
AcDbEntity
  8
Layer 1
370
    15
  0
SPLINE
  5
221
330
3C
100
AcDbEntity
  8
Layer 1
 62
     7
370
    15
100
AcDbSpline
210
0.0
220
0.0
230
1.0
 70
     8
 71
     3
 72
     8
 73
     4
 74
     0
 42
0.0000000001
 43
0.0000000001
 40
0.0
 40
0.0
 40
0.0
 40
0.0
 40
1.0
 40
1.0
 40
1.0
 40
1.0
 10
362.553408383754
 20
954.0657956599212
 30
0.0
 10
362.0201076026373
 20
954.0657956599212
 30
0.0
 10
361.487668095392
 20
954.0229042211297
 30
0.0
 10
360.9616020147943
 20
953.9381548721926
 30
0.0
  0
SPLINE
  5
222
330
3C
100
AcDbEntity
  8
Layer 1
 62
     7
370
    15
100
AcDbSpline
210
0.0
220
0.0
230
1.0
 70
     8
 71
     3
 72
     8
 73
     4
 74
     0
 42
0.0000000001
 43
0.0000000001
 40
0.0
 40
0.0
 40
0.0
 40
0.0
 40
1.0
 40
1.0
 40
1.0
 40
1.0
 10
439.5531872816048
 20
944.0658892496607
 30
0.0
 10
439.5531872816048
 20
944.5988455212288
 30
0.0
 10
439.5108126071362
 20
945.1311127736999
 30
0.0
 10
439.4260632581991
 20
945.6573511090718
 30
0.0
  0
SPLINE
  5
223
330
3C
100
AcDbEntity
  8
Layer 1
 62
     7
370
    15
100
AcDbSpline
210
0.0
220
0.0
230
1.0
 70
     8
 71
     3
 72
     8
 73
     4
 74
     0
 42
0.0000000001
 43
0.0000000001
 40
0.0
 40
0.0
 40
0.0
 40
0.0
 40
1.0
 40
1.0
 40
1.0
 40
1.0
 10
439.4260632581991
 20
875.4740381383364
 30
0.0
 10
439.5108126071362
 20
876.0006209832568
 30
0.0
 10
439.5531872816048
 20
876.5325437261794
 30
0.0
 10
439.5531872816048
 20
877.0658445072961
 30
0.0
  0
POLYLINE
  5
224
330
3C
100
AcDbEntity
  8
Layer 1
 62
     7
370
    15
100
AcDb2dPolyline
 66
     1
 10
0.0
 20
0.0
 30
0.0
  0
VERTEX
  5
225
330
224
100
AcDbEntity
  8
Layer 1
 62
     7
370
    15
100
AcDbVertex
100
AcDb2dVertex
 10
439.5531872816048
 20
877.0658445072961
 30
0.0
  0
VERTEX
  5
226
330
224
100
AcDbEntity
  8
Layer 1
 62
     7
370
    15
100
AcDbVertex
100
AcDb2dVertex
 10
439.5531872816048
 20
944.0658892496607
 30
0.0
  0
SEQEND
  5
227
330
224
100
AcDbEntity
  8
Layer 1
370
    15
  0
SPLINE
  5
228
330
3C
100
AcDbEntity
  8
Layer 1
 62
     7
370
    15
100
AcDbSpline
210
0.0
220
0.0
230
1.0
 70
     8
 71
     3
 72
     8
 73
     4
 74
     0
 42
0.0000000001
 43
0.0000000001
 40
0.0
 40
0.0
 40
0.0
 40
0.0
 40
1.0
 40
1.0
 40
1.0
 40
1.0
 10
352.5531574639451
 20
877.0658445072961
 30
0.0
 10
352.5531574639451
 20
876.5325437261794
 30
0.0
 10
352.5958766479621
 20
876.0006209832568
 30
0.0
 10
352.6807982516736
 20
875.4740381383364
 30
0.0
  0
SPLINE
  5
229
330
3C
100
AcDbEntity
  8
Layer 1
 62
     7
370
    15
100
AcDbSpline
210
0.0
220
0.0
230
1.0
 70
     8
 71
     3
 72
     8
 73
     4
 74
     0
 42
0.0000000001
 43
0.0000000001
 40
0.0
 40
0.0
 40
0.0
 40
0.0
 40
1.0
 40
1.0
 40
1.0
 40
1.0
 10
352.6807982516736
 20
945.6573511090718
 30
0.0
 10
352.5958766479621
 20
945.1311127736999
 30
0.0
 10
352.5531574639451
 20
944.5988455212288
 30
0.0
 10
352.5531574639451
 20
944.0658892496607
 30
0.0
  0
POLYLINE
  5
22A
330
3C
100
AcDbEntity
  8
Layer 1
 62
     7
370
    15
100
AcDb2dPolyline
 66
     1
 10
0.0
 20
0.0
 30
0.0
  0
VERTEX
  5
22B
330
22A
100
AcDbEntity
  8
Layer 1
 62
     7
370
    15
100
AcDbVertex
100
AcDb2dVertex
 10
352.5531574639451
 20
944.0658892496607
 30
0.0
  0
VERTEX
  5
22C
330
22A
100
AcDbEntity
  8
Layer 1
 62
     7
370
    15
100
AcDbVertex
100
AcDb2dVertex
 10
352.5531574639451
 20
877.0658445072961
 30
0.0
  0
SEQEND
  5
22D
330
22A
100
AcDbEntity
  8
Layer 1
370
    15
  0
SPLINE
  5
22E
330
3C
100
AcDbEntity
  8
Layer 1
 62
     7
370
    15
100
AcDbSpline
210
0.0
220
0.0
230
1.0
 70
     8
 71
     3
 72
     8
 73
     4
 74
     0
 42
0.0000000001
 43
0.0000000001
 40
0.0
 40
0.0
 40
0.0
 40
0.0
 40
1.0
 40
1.0
 40
1.0
 40
1.0
 10
429.5531086165701
 20
867.0659380970357
 30
0.0
 10
430.0864093976867
 20
867.0659380970357
 30
0.0
 10
430.6186766501579
 20
867.1084850262785
 30
0.0
 10
431.1454317498525
 20
867.1932343752156
 30
0.0
  0
SPLINE
  5
22F
330
3C
100
AcDbEntity
  8
Layer 1
 62
     7
370
    15
100
AcDbSpline
210
0.0
220
0.0
230
1.0
 70
     8
 71
     3
 72
     8
 73
     4
 74
     0
 42
0.0000000001
 43
0.0000000001
 40
0.0
 40
0.0
 40
0.0
 40
0.0
 40
1.0
 40
1.0
 40
1.0
 40
1.0
 10
360.9616020147943
 20
867.1932343752156
 30
0.0
 10
361.487668095392
 20
867.1084850262785
 30
0.0
 10
362.0201076026373
 20
867.0659380970357
 30
0.0
 10
362.553408383754
 20
867.0659380970357
 30
0.0
  0
POLYLINE
  5
230
330
3C
100
AcDbEntity
  8
Layer 1
 62
     7
370
    15
100
AcDb2dPolyline
 66
     1
 10
0.0
 20
0.0
 30
0.0
  0
VERTEX
  5
231
330
230
100
AcDbEntity
  8
Layer 1
 62
     7
370
    15
100
AcDbVertex
100
AcDb2dVertex
 10
362.553408383754
 20
867.0659380970357
 30
0.0
  0
VERTEX
  5
232
330
230
100
AcDbEntity
  8
Layer 1
 62
     7
370
    15
100
AcDbVertex
100
AcDb2dVertex
 10
429.5531086165701
 20
867.0659380970357
 30
0.0
  0
SEQEND
  5
233
330
230
100
AcDbEntity
  8
Layer 1
370
    15
  0
SPLINE
  5
234
330
3C
100
AcDbEntity
  8
Layer 1
 62
     7
370
    15
100
AcDbSpline
210
0.0
220
0.0
230
1.0
 70
     8
 71
     3
 72
     8
 73
     4
 74
     0
 42
0.0000000001
 43
0.0000000001
 40
0.0
 40
0.0
 40
0.0
 40
0.0
 40
1.0
 40
1.0
 40
1.0
 40
1.0
 10
439.4260632581991
 20
945.6573511090718
 30
0.0
 10
438.7398002375373
 20
949.9142833454208
 30
0.0
 10
435.4021917314273
 20
953.2517195967565
 30
0.0
 10
431.1454317498525
 20
953.9381548721926
 30
0.0
  0
SPLINE
  5
235
330
3C
100
AcDbEntity
  8
Layer 1
 62
     7
370
    15
100
AcDbSpline
210
0.0
220
0.0
230
1.0
 70
     8
 71
     3
 72
     8
 73
     4
 74
     0
 42
0.0000000001
 43
0.0000000001
 40
0.0
 40
0.0
 40
0.0
 40
0.0
 40
1.0
 40
1.0
 40
1.0
 40
1.0
 10
360.9616020147943
 20
953.9381548721926
 30
0.0
 10
356.7046697784453
 20
953.2517195967565
 30
0.0
 10
353.3670612723353
 20
949.9142833454208
 30
0.0
 10
352.6807982516736
 20
945.6573511090718
 30
0.0
  0
SPLINE
  5
236
330
3C
100
AcDbEntity
  8
Layer 1
 62
     7
370
    15
100
AcDbSpline
210
0.0
220
0.0
230
1.0
 70
     8
 71
     3
 72
     8
 73
     4
 74
     0
 42
0.0000000001
 43
0.0000000001
 40
0.0
 40
0.0
 40
0.0
 40
0.0
 40
1.0
 40
1.0
 40
1.0
 40
1.0
 10
431.1454317498525
 20
867.1932343752156
 30
0.0
 10
435.4021917314273
 20
867.8796696506516
 30
0.0
 10
438.7398002375373
 20
871.2172781567617
 30
0.0
 10
439.4260632581991
 20
875.4740381383364
 30
0.0
  0
SPLINE
  5
237
330
3C
100
AcDbEntity
  8
Layer 1
 62
     7
370
    15
100
AcDbSpline
210
0.0
220
0.0
230
1.0
 70
     8
 71
     3
 72
     8
 73
     4
 74
     0
 42
0.0000000001
 43
0.0000000001
 40
0.0
 40
0.0
 40
0.0
 40
0.0
 40
1.0
 40
1.0
 40
1.0
 40
1.0
 10
352.6807982516736
 20
875.4740381383364
 30
0.0
 10
353.3670612723353
 20
871.2172781567617
 30
0.0
 10
356.7046697784453
 20
867.8796696506516
 30
0.0
 10
360.9616020147943
 20
867.1932343752156
 30
0.0
  0
POLYLINE
  5
238
330
3C
100
AcDbEntity
  8
Layer 1
370
     0
100
AcDb2dPolyline
 66
     1
 10
0.0
 20
0.0
 30
0.0
  0
VERTEX
  5
239
330
238
100
AcDbEntity
  8
Layer 1
370
     0
100
AcDbVertex
100
AcDb2dVertex
 10
-24.56887070783348
 20
910.5657807510912
 30
0.0
  0
VERTEX
  5
23A
330
238
100
AcDbEntity
  8
Layer 1
370
     0
100
AcDbVertex
100
AcDb2dVertex
 10
-19.56917588486465
 20
880.5657170107614
 30
0.0
  0
VERTEX
  5
23B
330
238
100
AcDbEntity
  8
Layer 1
370
     0
100
AcDbVertex
100
AcDb2dVertex
 10
-29.56891004035083
 20
880.5657170107614
 30
0.0
  0
SEQEND
  5
23C
330
238
100
AcDbEntity
  8
Layer 1
370
     0
  0
HATCH
  5
23D
330
3C
100
AcDbEntity
  8
Layer 1
 62
     7
100
AcDbHatch
 10
0.0
 20
0.0
 30
0.0
210
0.0
220
0.0
230
1.0
  2
SOLID
 70
     1
 71
     0
 91
        1
 92
        1
 93
        3
 72
     1
 10
-24.56887070783348
 20
910.5657807510912
 11
-19.56917588486465
 21
880.5657170107614
 72
     1
 10
-19.56917588486465
 20
880.5657170107614
 11
-29.56891004035083
 21
880.5657170107614
 72
     1
 10
-29.56891004035083
 20
880.5657170107614
 11
-24.56887070783348
 21
910.5657807510912
 97
        0
 75
     2
 76
     1
 98
        0
  0
POLYLINE
  5
23E
330
3C
100
AcDbEntity
  8
Layer 1
370
     0
100
AcDb2dPolyline
 66
     1
 10
0.0
 20
0.0
 30
0.0
  0
VERTEX
  5
23F
330
23E
100
AcDbEntity
  8
Layer 1
370
     0
100
AcDbVertex
100
AcDb2dVertex
 10
-24.56887070783348
 20
1084.565668131636
 30
0.0
  0
VERTEX
  5
240
330
23E
100
AcDbEntity
  8
Layer 1
370
     0
100
AcDbVertex
100
AcDb2dVertex
 10
-29.56891004035083
 20
1114.565731871966
 30
0.0
  0
VERTEX
  5
241
330
23E
100
AcDbEntity
  8
Layer 1
370
     0
100
AcDbVertex
100
AcDb2dVertex
 10
-19.56917588486465
 20
1114.565731871966
 30
0.0
  0
SEQEND
  5
242
330
23E
100
AcDbEntity
  8
Layer 1
370
     0
  0
HATCH
  5
243
330
3C
100
AcDbEntity
  8
Layer 1
 62
     7
100
AcDbHatch
 10
0.0
 20
0.0
 30
0.0
210
0.0
220
0.0
230
1.0
  2
SOLID
 70
     1
 71
     0
 91
        1
 92
        1
 93
        3
 72
     1
 10
-24.56887070783348
 20
1084.565668131636
 11
-29.56891004035083
 21
1114.565731871966
 72
     1
 10
-29.56891004035083
 20
1114.565731871966
 11
-19.56917588486465
 21
1114.565731871966
 72
     1
 10
-19.56917588486465
 20
1114.565731871966
 11
-24.56887070783348
 21
1084.565668131636
 97
        0
 75
     2
 76
     1
 98
        0
  0
POLYLINE
  5
244
330
3C
100
AcDbEntity
  8
Layer 1
 62
     7
370
    25
100
AcDb2dPolyline
 66
     1
 10
0.0
 20
0.0
 30
0.0
  0
VERTEX
  5
245
330
244
100
AcDbEntity
  8
Layer 1
 62
     7
370
    25
100
AcDbVertex
100
AcDb2dVertex
 10
80.94579126665592
 20
910.5657807510912
 30
0.0
  0
VERTEX
  5
246
330
244
100
AcDbEntity
  8
Layer 1
 62
     7
370
    25
100
AcDbVertex
100
AcDb2dVertex
 10
-34.56912162764245
 20
910.5657807510912
 30
0.0
  0
SEQEND
  5
247
330
244
100
AcDbEntity
  8
Layer 1
370
    25
  0
POLYLINE
  5
248
330
3C
100
AcDbEntity
  8
Layer 1
 62
     7
370
    25
100
AcDb2dPolyline
 66
     1
 10
0.0
 20
0.0
 30
0.0
  0
VERTEX
  5
249
330
248
100
AcDbEntity
  8
Layer 1
 62
     7
370
    25
100
AcDbVertex
100
AcDb2dVertex
 10
80.3809678618492
 20
1084.565668131636
 30
0.0
  0
VERTEX
  5
24A
330
248
100
AcDbEntity
  8
Layer 1
 62
     7
370
    25
100
AcDbVertex
100
AcDb2dVertex
 10
-34.56912162764245
 20
1084.565668131636
 30
0.0
  0
SEQEND
  5
24B
330
248
100
AcDbEntity
  8
Layer 1
370
    25
  0
POLYLINE
  5
24C
330
3C
100
AcDbEntity
  8
Layer 1
 62
     7
370
    25
100
AcDb2dPolyline
 66
     1
 10
0.0
 20
0.0
 30
0.0
  0
VERTEX
  5
24D
330
24C
100
AcDbEntity
  8
Layer 1
 62
     7
370
    25
100
AcDbVertex
100
AcDb2dVertex
 10
-24.56887070783348
 20
910.5657807510912
 30
0.0
  0
VERTEX
  5
24E
330
24C
100
AcDbEntity
  8
Layer 1
 62
     7
370
    25
100
AcDbVertex
100
AcDb2dVertex
 10
-24.56887070783348
 20
850.5661700347544
 30
0.0
  0
SEQEND
  5
24F
330
24C
100
AcDbEntity
  8
Layer 1
370
    25
  0
POLYLINE
  5
250
330
3C
100
AcDbEntity
  8
Layer 1
 62
     7
370
    25
100
AcDb2dPolyline
 66
     1
 10
0.0
 20
0.0
 30
0.0
  0
VERTEX
  5
251
330
250
100
AcDbEntity
  8
Layer 1
 62
     7
370
    25
100
AcDbVertex
100
AcDb2dVertex
 10
-24.56887070783348
 20
910.5657807510912
 30
0.0
  0
VERTEX
  5
252
330
250
100
AcDbEntity
  8
Layer 1
 62
     7
370
    25
100
AcDbVertex
100
AcDb2dVertex
 10
-24.56887070783348
 20
1084.565668131636
 30
0.0
  0
SEQEND
  5
253
330
250
100
AcDbEntity
  8
Layer 1
370
    25
  0
POLYLINE
  5
254
330
3C
100
AcDbEntity
  8
Layer 1
 62
     7
370
    25
100
AcDb2dPolyline
 66
     1
 10
0.0
 20
0.0
 30
0.0
  0
VERTEX
  5
255
330
254
100
AcDbEntity
  8
Layer 1
 62
     7
370
    25
100
AcDbVertex
100
AcDb2dVertex
 10
-24.56887070783348
 20
1084.565668131636
 30
0.0
  0
VERTEX
  5
256
330
254
100
AcDbEntity
  8
Layer 1
 62
     7
370
    25
100
AcDbVertex
100
AcDb2dVertex
 10
-24.56887070783348
 20
1144.565795612296
 30
0.0
  0
SEQEND
  5
257
330
254
100
AcDbEntity
  8
Layer 1
370
    25
  0
POLYLINE
  5
258
330
3C
100
AcDbEntity
  8
Layer 1
 62
     7
370
    25
100
AcDb2dPolyline
 66
     1
 10
0.0
 20
0.0
 30
0.0
  0
VERTEX
  5
259
330
258
100
AcDbEntity
  8
Layer 1
 62
     7
370
    25
100
AcDbVertex
100
AcDb2dVertex
 10
-36.80602212621516
 20
933.4779050400681
 30
0.0
  0
VERTEX
  5
25A
330
258
100
AcDbEntity
  8
Layer 1
 62
     7
370
    25
100
AcDbVertex
100
AcDb2dVertex
 10
-36.80602212621516
 20
944.0608938612071
 30
0.0
  0
SEQEND
  5
25B
330
258
100
AcDbEntity
  8
Layer 1
370
    25
  0
POLYLINE
  5
25C
330
3C
100
AcDbEntity
  8
Layer 1
 62
     7
370
    25
100
AcDb2dPolyline
 66
     1
 10
0.0
 20
0.0
 30
0.0
  0
VERTEX
  5
25D
330
25C
100
AcDbEntity
  8
Layer 1
 62
     7
370
    25
100
AcDbVertex
100
AcDb2dVertex
 10
-36.80602212621516
 20
938.7692271958633
 30
0.0
  0
VERTEX
  5
25E
330
25C
100
AcDbEntity
  8
Layer 1
 62
     7
370
    25
100
AcDbVertex
100
AcDb2dVertex
 10
-79.13952770373943
 20
938.7692271958633
 30
0.0
  0
SEQEND
  5
25F
330
25C
100
AcDbEntity
  8
Layer 1
370
    25
  0
POLYLINE
  5
260
330
3C
100
AcDbEntity
  8
Layer 1
 62
     7
370
    25
100
AcDb2dPolyline
 66
     1
 10
0.0
 20
0.0
 30
0.0
  0
VERTEX
  5
261
330
260
100
AcDbEntity
  8
Layer 1
 62
     7
370
    25
100
AcDbVertex
100
AcDb2dVertex
 10
-79.13952770373943
 20
938.7692271958633
 30
0.0
  0
VERTEX
  5
262
330
260
100
AcDbEntity
  8
Layer 1
 62
     7
370
    25
100
AcDbVertex
100
AcDb2dVertex
 10
-72.08414440472203
 20
933.4779050400681
 30
0.0
  0
SEQEND
  5
263
330
260
100
AcDbEntity
  8
Layer 1
370
    25
  0
POLYLINE
  5
264
330
3C
100
AcDbEntity
  8
Layer 1
 62
     7
370
    25
100
AcDb2dPolyline
 66
     1
 10
0.0
 20
0.0
 30
0.0
  0
VERTEX
  5
265
330
264
100
AcDbEntity
  8
Layer 1
 62
     7
370
    25
100
AcDbVertex
100
AcDb2dVertex
 10
-79.13952770373943
 20
954.6443994466688
 30
0.0
  0
VERTEX
  5
266
330
264
100
AcDbEntity
  8
Layer 1
 62
     7
370
    25
100
AcDbVertex
100
AcDb2dVertex
 10
-79.13952770373943
 20
975.811238362818
 30
0.0
  0
SEQEND
  5
267
330
264
100
AcDbEntity
  8
Layer 1
370
    25
  0
POLYLINE
  5
268
330
3C
100
AcDbEntity
  8
Layer 1
 62
     7
370
    25
100
AcDb2dPolyline
 66
     1
 10
0.0
 20
0.0
 30
0.0
  0
VERTEX
  5
269
330
268
100
AcDbEntity
  8
Layer 1
 62
     7
370
    25
100
AcDbVertex
100
AcDb2dVertex
 10
-79.13952770373943
 20
975.811238362818
 30
0.0
  0
VERTEX
  5
26A
330
268
100
AcDbEntity
  8
Layer 1
 62
     7
370
    25
100
AcDbVertex
100
AcDb2dVertex
 10
-36.80602212621516
 20
959.9360661120126
 30
0.0
  0
SEQEND
  5
26B
330
268
100
AcDbEntity
  8
Layer 1
370
    25
  0
POLYLINE
  5
26C
330
3C
100
AcDbEntity
  8
Layer 1
 62
     7
370
    25
100
AcDb2dPolyline
 66
     1
 10
0.0
 20
0.0
 30
0.0
  0
VERTEX
  5
26D
330
26C
100
AcDbEntity
  8
Layer 1
 62
     7
370
    25
100
AcDbVertex
100
AcDb2dVertex
 10
-36.80602212621516
 20
1002.269399434763
 30
0.0
  0
VERTEX
  5
26E
330
26C
100
AcDbEntity
  8
Layer 1
 62
     7
370
    25
100
AcDbVertex
100
AcDb2dVertex
 10
-79.13952770373943
 20
1002.269399434763
 30
0.0
  0
SEQEND
  5
26F
330
26C
100
AcDbEntity
  8
Layer 1
370
    25
  0
POLYLINE
  5
270
330
3C
100
AcDbEntity
  8
Layer 1
 62
     7
370
    25
100
AcDb2dPolyline
 66
     1
 10
0.0
 20
0.0
 30
0.0
  0
VERTEX
  5
271
330
270
100
AcDbEntity
  8
Layer 1
 62
     7
370
    25
100
AcDbVertex
100
AcDb2dVertex
 10
-79.13952770373943
 20
1002.269399434763
 30
0.0
  0
VERTEX
  5
272
330
270
100
AcDbEntity
  8
Layer 1
 62
     7
370
    25
100
AcDbVertex
100
AcDb2dVertex
 10
-50.91713323379849
 20
986.394227183957
 30
0.0
  0
SEQEND
  5
273
330
270
100
AcDbEntity
  8
Layer 1
370
    25
  0
POLYLINE
  5
274
330
3C
100
AcDbEntity
  8
Layer 1
 62
     7
370
    25
100
AcDb2dPolyline
 66
     1
 10
0.0
 20
0.0
 30
0.0
  0
VERTEX
  5
275
330
274
100
AcDbEntity
  8
Layer 1
 62
     7
370
    25
100
AcDbVertex
100
AcDb2dVertex
 10
-50.91713323379849
 20
986.394227183957
 30
0.0
  0
VERTEX
  5
276
330
274
100
AcDbEntity
  8
Layer 1
 62
     7
370
    25
100
AcDbVertex
100
AcDb2dVertex
 10
-50.91713323379849
 20
1007.561238354881
 30
0.0
  0
SEQEND
  5
277
330
274
100
AcDbEntity
  8
Layer 1
370
    25
  0
POLYLINE
  5
278
330
3C
100
AcDbEntity
  8
Layer 1
370
     0
100
AcDb2dPolyline
 66
     1
 10
0.0
 20
0.0
 30
0.0
  0
VERTEX
  5
279
330
278
100
AcDbEntity
  8
Layer 1
370
     0
100
AcDbVertex
100
AcDb2dVertex
 10
396.0531723727749
 20
512.3242837260856
 30
0.0
  0
VERTEX
  5
27A
330
278
100
AcDbEntity
  8
Layer 1
370
     0
100
AcDbVertex
100
AcDb2dVertex
 10
366.0532808872193
 20
507.3237276292455
 30
0.0
  0
VERTEX
  5
27B
330
278
100
AcDbEntity
  8
Layer 1
370
     0
100
AcDbVertex
100
AcDb2dVertex
 10
366.0532808872193
 20
517.3241508038287
 30
0.0
  0
SEQEND
  5
27C
330
278
100
AcDbEntity
  8
Layer 1
370
     0
  0
HATCH
  5
27D
330
3C
100
AcDbEntity
  8
Layer 1
 62
     7
100
AcDbHatch
 10
0.0
 20
0.0
 30
0.0
210
0.0
220
0.0
230
1.0
  2
SOLID
 70
     1
 71
     0
 91
        1
 92
        1
 93
        3
 72
     1
 10
396.0531723727749
 20
512.3242837260856
 11
366.0532808872193
 21
507.3237276292455
 72
     1
 10
366.0532808872193
 20
507.3237276292455
 11
366.0532808872193
 21
517.3241508038287
 72
     1
 10
366.0532808872193
 20
517.3241508038287
 11
396.0531723727749
 21
512.3242837260856
 97
        0
 75
     2
 76
     1
 98
        0
  0
POLYLINE
  5
27E
330
3C
100
AcDbEntity
  8
Layer 1
370
     0
100
AcDb2dPolyline
 66
     1
 10
0.0
 20
0.0
 30
0.0
  0
VERTEX
  5
27F
330
27E
100
AcDbEntity
  8
Layer 1
370
     0
100
AcDbVertex
100
AcDb2dVertex
 10
121.0534206511603
 20
512.3242837260856
 30
0.0
  0
VERTEX
  5
280
330
27E
100
AcDbEntity
  8
Layer 1
370
     0
100
AcDbVertex
100
AcDb2dVertex
 10
151.0533121367158
 20
517.3241508038287
 30
0.0
  0
VERTEX
  5
281
330
27E
100
AcDbEntity
  8
Layer 1
370
     0
100
AcDbVertex
100
AcDb2dVertex
 10
151.0533121367158
 20
507.3237276292455
 30
0.0
  0
SEQEND
  5
282
330
27E
100
AcDbEntity
  8
Layer 1
370
     0
  0
HATCH
  5
283
330
3C
100
AcDbEntity
  8
Layer 1
 62
     7
100
AcDbHatch
 10
0.0
 20
0.0
 30
0.0
210
0.0
220
0.0
230
1.0
  2
SOLID
 70
     1
 71
     0
 91
        1
 92
        1
 93
        3
 72
     1
 10
121.0534206511603
 20
512.3242837260856
 11
151.0533121367158
 21
517.3241508038287
 72
     1
 10
151.0533121367158
 20
517.3241508038287
 11
151.0533121367158
 21
507.3237276292455
 72
     1
 10
151.0533121367158
 20
507.3237276292455
 11
121.0534206511603
 21
512.3242837260856
 97
        0
 75
     2
 76
     1
 98
        0
  0
POLYLINE
  5
284
330
3C
100
AcDbEntity
  8
Layer 1
 62
     7
370
    25
100
AcDb2dPolyline
 66
     1
 10
0.0
 20
0.0
 30
0.0
  0
VERTEX
  5
285
330
284
100
AcDbEntity
  8
Layer 1
 62
     7
370
    25
100
AcDbVertex
100
AcDb2dVertex
 10
396.0531723727749
 20
588.6769014370321
 30
0.0
  0
VERTEX
  5
286
330
284
100
AcDbEntity
  8
Layer 1
 62
     7
370
    25
100
AcDbVertex
100
AcDb2dVertex
 10
396.0531723727749
 20
502.3238605515024
 30
0.0
  0
SEQEND
  5
287
330
284
100
AcDbEntity
  8
Layer 1
370
    25
  0
POLYLINE
  5
288
330
3C
100
AcDbEntity
  8
Layer 1
 62
     7
370
    25
100
AcDb2dPolyline
 66
     1
 10
0.0
 20
0.0
 30
0.0
  0
VERTEX
  5
289
330
288
100
AcDbEntity
  8
Layer 1
 62
     7
370
    25
100
AcDbVertex
100
AcDb2dVertex
 10
121.0534206511603
 20
589.2422416061617
 30
0.0
  0
VERTEX
  5
28A
330
288
100
AcDbEntity
  8
Layer 1
 62
     7
370
    25
100
AcDbVertex
100
AcDb2dVertex
 10
121.0534206511603
 20
502.3238605515024
 30
0.0
  0
SEQEND
  5
28B
330
288
100
AcDbEntity
  8
Layer 1
370
    25
  0
POLYLINE
  5
28C
330
3C
100
AcDbEntity
  8
Layer 1
 62
     7
370
    25
100
AcDb2dPolyline
 66
     1
 10
0.0
 20
0.0
 30
0.0
  0
VERTEX
  5
28D
330
28C
100
AcDbEntity
  8
Layer 1
 62
     7
370
    25
100
AcDbVertex
100
AcDb2dVertex
 10
396.0531723727749
 20
512.3242837260856
 30
0.0
  0
VERTEX
  5
28E
330
28C
100
AcDbEntity
  8
Layer 1
 62
     7
370
    25
100
AcDbVertex
100
AcDb2dVertex
 10
121.0534206511603
 20
512.3242837260856
 30
0.0
  0
SEQEND
  5
28F
330
28C
100
AcDbEntity
  8
Layer 1
370
    25
  0
POLYLINE
  5
290
330
3C
100
AcDbEntity
  8
Layer 1
 62
     7
370
    25
100
AcDb2dPolyline
 66
     1
 10
0.0
 20
0.0
 30
0.0
  0
VERTEX
  5
291
330
290
100
AcDbEntity
  8
Layer 1
 62
     7
370
    25
100
AcDbVertex
100
AcDb2dVertex
 10
194.4653048558976
 20
559.8390406586514
 30
0.0
  0
VERTEX
  5
292
330
290
100
AcDbEntity
  8
Layer 1
 62
     7
370
    25
100
AcDbVertex
100
AcDb2dVertex
 10
199.7569715212413
 20
566.894596212443
 30
0.0
  0
SEQEND
  5
293
330
290
100
AcDbEntity
  8
Layer 1
370
    25
  0
POLYLINE
  5
294
330
3C
100
AcDbEntity
  8
Layer 1
 62
     7
370
    25
100
AcDb2dPolyline
 66
     1
 10
0.0
 20
0.0
 30
0.0
  0
VERTEX
  5
295
330
294
100
AcDbEntity
  8
Layer 1
 62
     7
370
    25
100
AcDbVertex
100
AcDb2dVertex
 10
199.7569715212413
 20
566.894596212443
 30
0.0
  0
VERTEX
  5
296
330
294
100
AcDbEntity
  8
Layer 1
 62
     7
370
    25
100
AcDbVertex
100
AcDb2dVertex
 10
210.3404771067031
 20
566.894596212443
 30
0.0
  0
SEQEND
  5
297
330
294
100
AcDbEntity
  8
Layer 1
370
    25
  0
POLYLINE
  5
298
330
3C
100
AcDbEntity
  8
Layer 1
 62
     7
370
    25
100
AcDb2dPolyline
 66
     1
 10
0.0
 20
0.0
 30
0.0
  0
VERTEX
  5
299
330
298
100
AcDbEntity
  8
Layer 1
 62
     7
370
    25
100
AcDbVertex
100
AcDb2dVertex
 10
210.3404771067031
 20
566.894596212443
 30
0.0
  0
VERTEX
  5
29A
330
298
100
AcDbEntity
  8
Layer 1
 62
     7
370
    25
100
AcDbVertex
100
AcDb2dVertex
 10
215.6321437720468
 20
559.8390406586514
 30
0.0
  0
SEQEND
  5
29B
330
298
100
AcDbEntity
  8
Layer 1
370
    25
  0
POLYLINE
  5
29C
330
3C
100
AcDbEntity
  8
Layer 1
 62
     7
370
    25
100
AcDb2dPolyline
 66
     1
 10
0.0
 20
0.0
 30
0.0
  0
VERTEX
  5
29D
330
29C
100
AcDbEntity
  8
Layer 1
 62
     7
370
    25
100
AcDbVertex
100
AcDb2dVertex
 10
215.6321437720468
 20
559.8390406586514
 30
0.0
  0
VERTEX
  5
29E
330
29C
100
AcDbEntity
  8
Layer 1
 62
     7
370
    25
100
AcDbVertex
100
AcDb2dVertex
 10
215.6321437720468
 20
552.7827960857627
 30
0.0
  0
SEQEND
  5
29F
330
29C
100
AcDbEntity
  8
Layer 1
370
    25
  0
POLYLINE
  5
2A0
330
3C
100
AcDbEntity
  8
Layer 1
 62
     7
370
    25
100
AcDb2dPolyline
 66
     1
 10
0.0
 20
0.0
 30
0.0
  0
VERTEX
  5
2A1
330
2A0
100
AcDbEntity
  8
Layer 1
 62
     7
370
    25
100
AcDbVertex
100
AcDb2dVertex
 10
215.6321437720468
 20
552.7827960857627
 30
0.0
  0
VERTEX
  5
2A2
330
2A0
100
AcDbEntity
  8
Layer 1
 62
     7
370
    25
100
AcDbVertex
100
AcDb2dVertex
 10
210.3404771067031
 20
545.7275850415195
 30
0.0
  0
SEQEND
  5
2A3
330
2A0
100
AcDbEntity
  8
Layer 1
370
    25
  0
POLYLINE
  5
2A4
330
3C
100
AcDbEntity
  8
Layer 1
 62
     7
370
    25
100
AcDb2dPolyline
 66
     1
 10
0.0
 20
0.0
 30
0.0
  0
VERTEX
  5
2A5
330
2A4
100
AcDbEntity
  8
Layer 1
 62
     7
370
    25
100
AcDbVertex
100
AcDb2dVertex
 10
210.3404771067031
 20
545.7275850415195
 30
0.0
  0
VERTEX
  5
2A6
330
2A4
100
AcDbEntity
  8
Layer 1
 62
     7
370
    25
100
AcDbVertex
100
AcDb2dVertex
 10
199.7569715212413
 20
545.7275850415195
 30
0.0
  0
SEQEND
  5
2A7
330
2A4
100
AcDbEntity
  8
Layer 1
370
    25
  0
POLYLINE
  5
2A8
330
3C
100
AcDbEntity
  8
Layer 1
 62
     7
370
    25
100
AcDb2dPolyline
 66
     1
 10
0.0
 20
0.0
 30
0.0
  0
VERTEX
  5
2A9
330
2A8
100
AcDbEntity
  8
Layer 1
 62
     7
370
    25
100
AcDbVertex
100
AcDb2dVertex
 10
199.7569715212413
 20
545.7275850415195
 30
0.0
  0
VERTEX
  5
2AA
330
2A8
100
AcDbEntity
  8
Layer 1
 62
     7
370
    25
100
AcDbVertex
100
AcDb2dVertex
 10
194.4653048558976
 20
538.6723739972764
 30
0.0
  0
SEQEND
  5
2AB
330
2A8
100
AcDbEntity
  8
Layer 1
370
    25
  0
POLYLINE
  5
2AC
330
3C
100
AcDbEntity
  8
Layer 1
 62
     7
370
    25
100
AcDb2dPolyline
 66
     1
 10
0.0
 20
0.0
 30
0.0
  0
VERTEX
  5
2AD
330
2AC
100
AcDbEntity
  8
Layer 1
 62
     7
370
    25
100
AcDbVertex
100
AcDb2dVertex
 10
194.4653048558976
 20
538.6723739972764
 30
0.0
  0
VERTEX
  5
2AE
330
2AC
100
AcDbEntity
  8
Layer 1
 62
     7
370
    25
100
AcDbVertex
100
AcDb2dVertex
 10
194.4653048558976
 20
524.560573870596
 30
0.0
  0
SEQEND
  5
2AF
330
2AC
100
AcDbEntity
  8
Layer 1
370
    25
  0
POLYLINE
  5
2B0
330
3C
100
AcDbEntity
  8
Layer 1
 62
     7
370
    25
100
AcDb2dPolyline
 66
     1
 10
0.0
 20
0.0
 30
0.0
  0
VERTEX
  5
2B1
330
2B0
100
AcDbEntity
  8
Layer 1
 62
     7
370
    25
100
AcDbVertex
100
AcDb2dVertex
 10
194.4653048558976
 20
524.560573870596
 30
0.0
  0
VERTEX
  5
2B2
330
2B0
100
AcDbEntity
  8
Layer 1
 62
     7
370
    25
100
AcDbVertex
100
AcDb2dVertex
 10
215.6321437720468
 20
524.560573870596
 30
0.0
  0
SEQEND
  5
2B3
330
2B0
100
AcDbEntity
  8
Layer 1
370
    25
  0
POLYLINE
  5
2B4
330
3C
100
AcDbEntity
  8
Layer 1
 62
     7
370
    25
100
AcDb2dPolyline
 66
     1
 10
0.0
 20
0.0
 30
0.0
  0
VERTEX
  5
2B5
330
2B4
100
AcDbEntity
  8
Layer 1
 62
     7
370
    25
100
AcDbVertex
100
AcDb2dVertex
 10
226.2156493575086
 20
566.894596212443
 30
0.0
  0
VERTEX
  5
2B6
330
2B4
100
AcDbEntity
  8
Layer 1
 62
     7
370
    25
100
AcDbVertex
100
AcDb2dVertex
 10
247.3821437641093
 20
566.894596212443
 30
0.0
  0
SEQEND
  5
2B7
330
2B4
100
AcDbEntity
  8
Layer 1
370
    25
  0
POLYLINE
  5
2B8
330
3C
100
AcDbEntity
  8
Layer 1
 62
     7
370
    25
100
AcDb2dPolyline
 66
     1
 10
0.0
 20
0.0
 30
0.0
  0
VERTEX
  5
2B9
330
2B8
100
AcDbEntity
  8
Layer 1
 62
     7
370
    25
100
AcDbVertex
100
AcDb2dVertex
 10
247.3821437641093
 20
566.894596212443
 30
0.0
  0
VERTEX
  5
2BA
330
2B8
100
AcDbEntity
  8
Layer 1
 62
     7
370
    25
100
AcDbVertex
100
AcDb2dVertex
 10
231.5073160228523
 20
524.560573870596
 30
0.0
  0
SEQEND
  5
2BB
330
2B8
100
AcDbEntity
  8
Layer 1
370
    25
  0
POLYLINE
  5
2BC
330
3C
100
AcDbEntity
  8
Layer 1
 62
     7
370
    25
100
AcDb2dPolyline
 66
     1
 10
0.0
 20
0.0
 30
0.0
  0
VERTEX
  5
2BD
330
2BC
100
AcDbEntity
  8
Layer 1
 62
     7
370
    25
100
AcDbVertex
100
AcDb2dVertex
 10
257.9654770947968
 20
531.6168184434847
 30
0.0
  0
VERTEX
  5
2BE
330
2BC
100
AcDbEntity
  8
Layer 1
 62
     7
370
    25
100
AcDbVertex
100
AcDb2dVertex
 10
263.2573160149149
 20
524.560573870596
 30
0.0
  0
SEQEND
  5
2BF
330
2BC
100
AcDbEntity
  8
Layer 1
370
    25
  0
POLYLINE
  5
2C0
330
3C
100
AcDbEntity
  8
Layer 1
 62
     7
370
    25
100
AcDb2dPolyline
 66
     1
 10
0.0
 20
0.0
 30
0.0
  0
VERTEX
  5
2C1
330
2C0
100
AcDbEntity
  8
Layer 1
 62
     7
370
    25
100
AcDbVertex
100
AcDb2dVertex
 10
263.2573160149149
 20
524.560573870596
 30
0.0
  0
VERTEX
  5
2C2
330
2C0
100
AcDbEntity
  8
Layer 1
 62
     7
370
    25
100
AcDbVertex
100
AcDb2dVertex
 10
273.8403048360538
 20
524.560573870596
 30
0.0
  0
SEQEND
  5
2C3
330
2C0
100
AcDbEntity
  8
Layer 1
370
    25
  0
POLYLINE
  5
2C4
330
3C
100
AcDbEntity
  8
Layer 1
 62
     7
370
    25
100
AcDb2dPolyline
 66
     1
 10
0.0
 20
0.0
 30
0.0
  0
VERTEX
  5
2C5
330
2C4
100
AcDbEntity
  8
Layer 1
 62
     7
370
    25
100
AcDbVertex
100
AcDb2dVertex
 10
273.8403048360538
 20
524.560573870596
 30
0.0
  0
VERTEX
  5
2C6
330
2C4
100
AcDbEntity
  8
Layer 1
 62
     7
370
    25
100
AcDbVertex
100
AcDb2dVertex
 10
279.1319715013976
 20
531.6168184434847
 30
0.0
  0
SEQEND
  5
2C7
330
2C4
100
AcDbEntity
  8
Layer 1
370
    25
  0
POLYLINE
  5
2C8
330
3C
100
AcDbEntity
  8
Layer 1
 62
     7
370
    25
100
AcDb2dPolyline
 66
     1
 10
0.0
 20
0.0
 30
0.0
  0
VERTEX
  5
2C9
330
2C8
100
AcDbEntity
  8
Layer 1
 62
     7
370
    25
100
AcDbVertex
100
AcDb2dVertex
 10
279.1319715013976
 20
531.6168184434847
 30
0.0
  0
VERTEX
  5
2CA
330
2C8
100
AcDbEntity
  8
Layer 1
 62
     7
370
    25
100
AcDbVertex
100
AcDb2dVertex
 10
279.1319715013976
 20
545.7275850415195
 30
0.0
  0
SEQEND
  5
2CB
330
2C8
100
AcDbEntity
  8
Layer 1
370
    25
  0
POLYLINE
  5
2CC
330
3C
100
AcDbEntity
  8
Layer 1
 62
     7
370
    25
100
AcDb2dPolyline
 66
     1
 10
0.0
 20
0.0
 30
0.0
  0
VERTEX
  5
2CD
330
2CC
100
AcDbEntity
  8
Layer 1
 62
     7
370
    25
100
AcDbVertex
100
AcDb2dVertex
 10
279.1319715013976
 20
545.7275850415195
 30
0.0
  0
VERTEX
  5
2CE
330
2CC
100
AcDbEntity
  8
Layer 1
 62
     7
370
    25
100
AcDbVertex
100
AcDb2dVertex
 10
273.8403048360538
 20
552.7827960857627
 30
0.0
  0
SEQEND
  5
2CF
330
2CC
100
AcDbEntity
  8
Layer 1
370
    25
  0
POLYLINE
  5
2D0
330
3C
100
AcDbEntity
  8
Layer 1
 62
     7
370
    25
100
AcDb2dPolyline
 66
     1
 10
0.0
 20
0.0
 30
0.0
  0
VERTEX
  5
2D1
330
2D0
100
AcDbEntity
  8
Layer 1
 62
     7
370
    25
100
AcDbVertex
100
AcDb2dVertex
 10
273.8403048360538
 20
552.7827960857627
 30
0.0
  0
VERTEX
  5
2D2
330
2D0
100
AcDbEntity
  8
Layer 1
 62
     7
370
    25
100
AcDbVertex
100
AcDb2dVertex
 10
257.9654770947968
 20
552.7827960857627
 30
0.0
  0
SEQEND
  5
2D3
330
2D0
100
AcDbEntity
  8
Layer 1
370
    25
  0
POLYLINE
  5
2D4
330
3C
100
AcDbEntity
  8
Layer 1
 62
     7
370
    25
100
AcDb2dPolyline
 66
     1
 10
0.0
 20
0.0
 30
0.0
  0
VERTEX
  5
2D5
330
2D4
100
AcDbEntity
  8
Layer 1
 62
     7
370
    25
100
AcDbVertex
100
AcDb2dVertex
 10
257.9654770947968
 20
552.7827960857627
 30
0.0
  0
VERTEX
  5
2D6
330
2D4
100
AcDbEntity
  8
Layer 1
 62
     7
370
    25
100
AcDbVertex
100
AcDb2dVertex
 10
257.9654770947968
 20
566.894596212443
 30
0.0
  0
SEQEND
  5
2D7
330
2D4
100
AcDbEntity
  8
Layer 1
370
    25
  0
POLYLINE
  5
2D8
330
3C
100
AcDbEntity
  8
Layer 1
 62
     7
370
    25
100
AcDb2dPolyline
 66
     1
 10
0.0
 20
0.0
 30
0.0
  0
VERTEX
  5
2D9
330
2D8
100
AcDbEntity
  8
Layer 1
 62
     7
370
    25
100
AcDbVertex
100
AcDb2dVertex
 10
257.9654770947968
 20
566.894596212443
 30
0.0
  0
VERTEX
  5
2DA
330
2D8
100
AcDbEntity
  8
Layer 1
 62
     7
370
    25
100
AcDbVertex
100
AcDb2dVertex
 10
279.1319715013976
 20
566.894596212443
 30
0.0
  0
SEQEND
  5
2DB
330
2D8
100
AcDbEntity
  8
Layer 1
370
    25
  0
POLYLINE
  5
2DC
330
3C
100
AcDbEntity
  8
Layer 1
370
     0
100
AcDb2dPolyline
 66
     1
 10
0.0
 20
0.0
 30
0.0
  0
VERTEX
  5
2DD
330
2DC
100
AcDbEntity
  8
Layer 1
370
     0
100
AcDbVertex
100
AcDb2dVertex
 10
121.0534206511603
 20
1254.565455144258
 30
0.0
  0
VERTEX
  5
2DE
330
2DC
100
AcDbEntity
  8
Layer 1
370
     0
100
AcDbVertex
100
AcDb2dVertex
 10
151.0533121367158
 20
1259.565149967227
 30
0.0
  0
VERTEX
  5
2DF
330
2DC
100
AcDbEntity
  8
Layer 1
370
     0
100
AcDbVertex
100
AcDb2dVertex
 10
151.0533121367158
 20
1249.565415811741
 30
0.0
  0
SEQEND
  5
2E0
330
2DC
100
AcDbEntity
  8
Layer 1
370
     0
  0
HATCH
  5
2E1
330
3C
100
AcDbEntity
  8
Layer 1
 62
     7
100
AcDbHatch
 10
0.0
 20
0.0
 30
0.0
210
0.0
220
0.0
230
1.0
  2
SOLID
 70
     1
 71
     0
 91
        1
 92
        1
 93
        3
 72
     1
 10
121.0534206511603
 20
1254.565455144258
 11
151.0533121367158
 21
1259.565149967227
 72
     1
 10
151.0533121367158
 20
1259.565149967227
 11
151.0533121367158
 21
1249.565415811741
 72
     1
 10
151.0533121367158
 20
1249.565415811741
 11
121.0534206511603
 21
1254.565455144258
 97
        0
 75
     2
 76
     1
 98
        0
  0
POLYLINE
  5
2E2
330
3C
100
AcDbEntity
  8
Layer 1
370
     0
100
AcDb2dPolyline
 66
     1
 10
0.0
 20
0.0
 30
0.0
  0
VERTEX
  5
2E3
330
2E2
100
AcDbEntity
  8
Layer 1
370
     0
100
AcDbVertex
100
AcDb2dVertex
 10
671.0529240943896
 20
1254.565455144258
 30
0.0
  0
VERTEX
  5
2E4
330
2E2
100
AcDbEntity
  8
Layer 1
370
     0
100
AcDbVertex
100
AcDb2dVertex
 10
641.053032608834
 20
1249.565415811741
 30
0.0
  0
VERTEX
  5
2E5
330
2E2
100
AcDbEntity
  8
Layer 1
370
     0
100
AcDbVertex
100
AcDb2dVertex
 10
641.053032608834
 20
1259.565149967227
 30
0.0
  0
SEQEND
  5
2E6
330
2E2
100
AcDbEntity
  8
Layer 1
370
     0
  0
HATCH
  5
2E7
330
3C
100
AcDbEntity
  8
Layer 1
 62
     7
100
AcDbHatch
 10
0.0
 20
0.0
 30
0.0
210
0.0
220
0.0
230
1.0
  2
SOLID
 70
     1
 71
     0
 91
        1
 92
        1
 93
        3
 72
     1
 10
671.0529240943896
 20
1254.565455144258
 11
641.053032608834
 21
1249.565415811741
 72
     1
 10
641.053032608834
 20
1249.565415811741
 11
641.053032608834
 21
1259.565149967227
 72
     1
 10
641.053032608834
 20
1259.565149967227
 11
671.0529240943896
 21
1254.565455144258
 97
        0
 75
     2
 76
     1
 98
        0
  0
POLYLINE
  5
2E8
330
3C
100
AcDbEntity
  8
Layer 1
 62
     7
370
    25
100
AcDb2dPolyline
 66
     1
 10
0.0
 20
0.0
 30
0.0
  0
VERTEX
  5
2E9
330
2E8
100
AcDbEntity
  8
Layer 1
 62
     7
370
    25
100
AcDbVertex
100
AcDb2dVertex
 10
121.0534206511603
 20
1124.434207889464
 30
0.0
  0
VERTEX
  5
2EA
330
2E8
100
AcDbEntity
  8
Layer 1
 62
     7
370
    25
100
AcDbVertex
100
AcDb2dVertex
 10
121.0534206511603
 20
1264.565361554518
 30
0.0
  0
SEQEND
  5
2EB
330
2E8
100
AcDbEntity
  8
Layer 1
370
    25
  0
POLYLINE
  5
2EC
330
3C
100
AcDbEntity
  8
Layer 1
 62
     7
370
    25
100
AcDb2dPolyline
 66
     1
 10
0.0
 20
0.0
 30
0.0
  0
VERTEX
  5
2ED
330
2EC
100
AcDbEntity
  8
Layer 1
 62
     7
370
    25
100
AcDbVertex
100
AcDb2dVertex
 10
671.0529240943896
 20
1124.99937580382
 30
0.0
  0
VERTEX
  5
2EE
330
2EC
100
AcDbEntity
  8
Layer 1
 62
     7
370
    25
100
AcDbVertex
100
AcDb2dVertex
 10
671.0529240943896
 20
1264.565361554518
 30
0.0
  0
SEQEND
  5
2EF
330
2EC
100
AcDbEntity
  8
Layer 1
370
    25
  0
POLYLINE
  5
2F0
330
3C
100
AcDbEntity
  8
Layer 1
 62
     7
370
    25
100
AcDb2dPolyline
 66
     1
 10
0.0
 20
0.0
 30
0.0
  0
VERTEX
  5
2F1
330
2F0
100
AcDbEntity
  8
Layer 1
 62
     7
370
    25
100
AcDbVertex
100
AcDb2dVertex
 10
121.0534206511603
 20
1254.565455144258
 30
0.0
  0
VERTEX
  5
2F2
330
2F0
100
AcDbEntity
  8
Layer 1
 62
     7
370
    25
100
AcDbVertex
100
AcDb2dVertex
 10
671.0529240943896
 20
1254.565455144258
 30
0.0
  0
SEQEND
  5
2F3
330
2F0
100
AcDbEntity
  8
Layer 1
370
    25
  0
POLYLINE
  5
2F4
330
3C
100
AcDbEntity
  8
Layer 1
 62
     7
370
    25
100
AcDb2dPolyline
 66
     1
 10
0.0
 20
0.0
 30
0.0
  0
VERTEX
  5
2F5
330
2F4
100
AcDbEntity
  8
Layer 1
 62
     7
370
    25
100
AcDbVertex
100
AcDb2dVertex
 10
331.965266844092
 20
1273.858162116431
 30
0.0
  0
VERTEX
  5
2F6
330
2F4
100
AcDbEntity
  8
Layer 1
 62
     7
370
    25
100
AcDbVertex
100
AcDb2dVertex
 10
337.2569335094358
 20
1266.802778817414
 30
0.0
  0
SEQEND
  5
2F7
330
2F4
100
AcDbEntity
  8
Layer 1
370
    25
  0
POLYLINE
  5
2F8
330
3C
100
AcDbEntity
  8
Layer 1
 62
     7
370
    25
100
AcDb2dPolyline
 66
     1
 10
0.0
 20
0.0
 30
0.0
  0
VERTEX
  5
2F9
330
2F8
100
AcDbEntity
  8
Layer 1
 62
     7
370
    25
100
AcDbVertex
100
AcDb2dVertex
 10
337.2569335094358
 20
1266.802778817414
 30
0.0
  0
VERTEX
  5
2FA
330
2F8
100
AcDbEntity
  8
Layer 1
 62
     7
370
    25
100
AcDbVertex
100
AcDb2dVertex
 10
347.8404390948975
 20
1266.802778817414
 30
0.0
  0
SEQEND
  5
2FB
330
2F8
100
AcDbEntity
  8
Layer 1
370
    25
  0
POLYLINE
  5
2FC
330
3C
100
AcDbEntity
  8
Layer 1
 62
     7
370
    25
100
AcDb2dPolyline
 66
     1
 10
0.0
 20
0.0
 30
0.0
  0
VERTEX
  5
2FD
330
2FC
100
AcDbEntity
  8
Layer 1
 62
     7
370
    25
100
AcDbVertex
100
AcDb2dVertex
 10
347.8404390948975
 20
1266.802778817414
 30
0.0
  0
VERTEX
  5
2FE
330
2FC
100
AcDbEntity
  8
Layer 1
 62
     7
370
    25
100
AcDbVertex
100
AcDb2dVertex
 10
353.1321057602413
 20
1273.858162116431
 30
0.0
  0
SEQEND
  5
2FF
330
2FC
100
AcDbEntity
  8
Layer 1
370
    25
  0
POLYLINE
  5
300
330
3C
100
AcDbEntity
  8
Layer 1
 62
     7
370
    25
100
AcDb2dPolyline
 66
     1
 10
0.0
 20
0.0
 30
0.0
  0
VERTEX
  5
301
330
300
100
AcDbEntity
  8
Layer 1
 62
     7
370
    25
100
AcDbVertex
100
AcDb2dVertex
 10
353.1321057602413
 20
1273.858162116431
 30
0.0
  0
VERTEX
  5
302
330
300
100
AcDbEntity
  8
Layer 1
 62
     7
370
    25
100
AcDbVertex
100
AcDb2dVertex
 10
353.1321057602413
 20
1287.969273224015
 30
0.0
  0
SEQEND
  5
303
330
300
100
AcDbEntity
  8
Layer 1
370
    25
  0
POLYLINE
  5
304
330
3C
100
AcDbEntity
  8
Layer 1
 62
     7
370
    25
100
AcDb2dPolyline
 66
     1
 10
0.0
 20
0.0
 30
0.0
  0
VERTEX
  5
305
330
304
100
AcDbEntity
  8
Layer 1
 62
     7
370
    25
100
AcDbVertex
100
AcDb2dVertex
 10
353.1321057602413
 20
1287.969273224015
 30
0.0
  0
VERTEX
  5
306
330
304
100
AcDbEntity
  8
Layer 1
 62
     7
370
    25
100
AcDbVertex
100
AcDb2dVertex
 10
347.8404390948975
 20
1295.025001032581
 30
0.0
  0
SEQEND
  5
307
330
304
100
AcDbEntity
  8
Layer 1
370
    25
  0
POLYLINE
  5
308
330
3C
100
AcDbEntity
  8
Layer 1
 62
     7
370
    25
100
AcDb2dPolyline
 66
     1
 10
0.0
 20
0.0
 30
0.0
  0
VERTEX
  5
309
330
308
100
AcDbEntity
  8
Layer 1
 62
     7
370
    25
100
AcDbVertex
100
AcDb2dVertex
 10
347.8404390948975
 20
1295.025001032581
 30
0.0
  0
VERTEX
  5
30A
330
308
100
AcDbEntity
  8
Layer 1
 62
     7
370
    25
100
AcDbVertex
100
AcDb2dVertex
 10
331.965266844092
 20
1295.025001032581
 30
0.0
  0
SEQEND
  5
30B
330
308
100
AcDbEntity
  8
Layer 1
370
    25
  0
POLYLINE
  5
30C
330
3C
100
AcDbEntity
  8
Layer 1
 62
     7
370
    25
100
AcDb2dPolyline
 66
     1
 10
0.0
 20
0.0
 30
0.0
  0
VERTEX
  5
30D
330
30C
100
AcDbEntity
  8
Layer 1
 62
     7
370
    25
100
AcDbVertex
100
AcDb2dVertex
 10
331.965266844092
 20
1295.025001032581
 30
0.0
  0
VERTEX
  5
30E
330
30C
100
AcDbEntity
  8
Layer 1
 62
     7
370
    25
100
AcDbVertex
100
AcDb2dVertex
 10
331.965266844092
 20
1309.135767630615
 30
0.0
  0
SEQEND
  5
30F
330
30C
100
AcDbEntity
  8
Layer 1
370
    25
  0
POLYLINE
  5
310
330
3C
100
AcDbEntity
  8
Layer 1
 62
     7
370
    25
100
AcDb2dPolyline
 66
     1
 10
0.0
 20
0.0
 30
0.0
  0
VERTEX
  5
311
330
310
100
AcDbEntity
  8
Layer 1
 62
     7
370
    25
100
AcDbVertex
100
AcDb2dVertex
 10
331.965266844092
 20
1309.135767630615
 30
0.0
  0
VERTEX
  5
312
330
310
100
AcDbEntity
  8
Layer 1
 62
     7
370
    25
100
AcDbVertex
100
AcDb2dVertex
 10
353.1321057602413
 20
1309.135767630615
 30
0.0
  0
SEQEND
  5
313
330
310
100
AcDbEntity
  8
Layer 1
370
    25
  0
POLYLINE
  5
314
330
3C
100
AcDbEntity
  8
Layer 1
 62
     7
370
    25
100
AcDb2dPolyline
 66
     1
 10
0.0
 20
0.0
 30
0.0
  0
VERTEX
  5
315
330
314
100
AcDbEntity
  8
Layer 1
 62
     7
370
    25
100
AcDbVertex
100
AcDb2dVertex
 10
363.7156113457031
 20
1273.858162116431
 30
0.0
  0
VERTEX
  5
316
330
314
100
AcDbEntity
  8
Layer 1
 62
     7
370
    25
100
AcDbVertex
100
AcDb2dVertex
 10
369.0069335014983
 20
1266.802778817414
 30
0.0
  0
SEQEND
  5
317
330
314
100
AcDbEntity
  8
Layer 1
370
    25
  0
POLYLINE
  5
318
330
3C
100
AcDbEntity
  8
Layer 1
 62
     7
370
    25
100
AcDb2dPolyline
 66
     1
 10
0.0
 20
0.0
 30
0.0
  0
VERTEX
  5
319
330
318
100
AcDbEntity
  8
Layer 1
 62
     7
370
    25
100
AcDbVertex
100
AcDb2dVertex
 10
369.0069335014983
 20
1266.802778817414
 30
0.0
  0
VERTEX
  5
31A
330
318
100
AcDbEntity
  8
Layer 1
 62
     7
370
    25
100
AcDbVertex
100
AcDb2dVertex
 10
379.5907835965086
 20
1266.802778817414
 30
0.0
  0
SEQEND
  5
31B
330
318
100
AcDbEntity
  8
Layer 1
370
    25
  0
POLYLINE
  5
31C
330
3C
100
AcDbEntity
  8
Layer 1
 62
     7
370
    25
100
AcDb2dPolyline
 66
     1
 10
0.0
 20
0.0
 30
0.0
  0
VERTEX
  5
31D
330
31C
100
AcDbEntity
  8
Layer 1
 62
     7
370
    25
100
AcDbVertex
100
AcDb2dVertex
 10
379.5907835965086
 20
1266.802778817414
 30
0.0
  0
VERTEX
  5
31E
330
31C
100
AcDbEntity
  8
Layer 1
 62
     7
370
    25
100
AcDbVertex
100
AcDb2dVertex
 10
384.881588987981
 20
1273.858162116431
 30
0.0
  0
SEQEND
  5
31F
330
31C
100
AcDbEntity
  8
Layer 1
370
    25
  0
POLYLINE
  5
320
330
3C
100
AcDbEntity
  8
Layer 1
 62
     7
370
    25
100
AcDb2dPolyline
 66
     1
 10
0.0
 20
0.0
 30
0.0
  0
VERTEX
  5
321
330
320
100
AcDbEntity
  8
Layer 1
 62
     7
370
    25
100
AcDbVertex
100
AcDb2dVertex
 10
384.881588987981
 20
1273.858162116431
 30
0.0
  0
VERTEX
  5
322
330
320
100
AcDbEntity
  8
Layer 1
 62
     7
370
    25
100
AcDbVertex
100
AcDb2dVertex
 10
384.881588987981
 20
1287.969273224015
 30
0.0
  0
SEQEND
  5
323
330
320
100
AcDbEntity
  8
Layer 1
370
    25
  0
POLYLINE
  5
324
330
3C
100
AcDbEntity
  8
Layer 1
 62
     7
370
    25
100
AcDb2dPolyline
 66
     1
 10
0.0
 20
0.0
 30
0.0
  0
VERTEX
  5
325
330
324
100
AcDbEntity
  8
Layer 1
 62
     7
370
    25
100
AcDbVertex
100
AcDb2dVertex
 10
384.881588987981
 20
1287.969273224015
 30
0.0
  0
VERTEX
  5
326
330
324
100
AcDbEntity
  8
Layer 1
 62
     7
370
    25
100
AcDbVertex
100
AcDb2dVertex
 10
379.5907835965086
 20
1295.025001032581
 30
0.0
  0
SEQEND
  5
327
330
324
100
AcDbEntity
  8
Layer 1
370
    25
  0
POLYLINE
  5
328
330
3C
100
AcDbEntity
  8
Layer 1
 62
     7
370
    25
100
AcDb2dPolyline
 66
     1
 10
0.0
 20
0.0
 30
0.0
  0
VERTEX
  5
329
330
328
100
AcDbEntity
  8
Layer 1
 62
     7
370
    25
100
AcDbVertex
100
AcDb2dVertex
 10
379.5907835965086
 20
1295.025001032581
 30
0.0
  0
VERTEX
  5
32A
330
328
100
AcDbEntity
  8
Layer 1
 62
     7
370
    25
100
AcDbVertex
100
AcDb2dVertex
 10
363.7156113457031
 20
1295.025001032581
 30
0.0
  0
SEQEND
  5
32B
330
328
100
AcDbEntity
  8
Layer 1
370
    25
  0
POLYLINE
  5
32C
330
3C
100
AcDbEntity
  8
Layer 1
 62
     7
370
    25
100
AcDb2dPolyline
 66
     1
 10
0.0
 20
0.0
 30
0.0
  0
VERTEX
  5
32D
330
32C
100
AcDbEntity
  8
Layer 1
 62
     7
370
    25
100
AcDbVertex
100
AcDb2dVertex
 10
363.7156113457031
 20
1295.025001032581
 30
0.0
  0
VERTEX
  5
32E
330
32C
100
AcDbEntity
  8
Layer 1
 62
     7
370
    25
100
AcDbVertex
100
AcDb2dVertex
 10
363.7156113457031
 20
1309.135767630615
 30
0.0
  0
SEQEND
  5
32F
330
32C
100
AcDbEntity
  8
Layer 1
370
    25
  0
POLYLINE
  5
330
330
3C
100
AcDbEntity
  8
Layer 1
 62
     7
370
    25
100
AcDb2dPolyline
 66
     1
 10
0.0
 20
0.0
 30
0.0
  0
VERTEX
  5
331
330
330
100
AcDbEntity
  8
Layer 1
 62
     7
370
    25
100
AcDbVertex
100
AcDb2dVertex
 10
363.7156113457031
 20
1309.135767630615
 30
0.0
  0
VERTEX
  5
332
330
330
100
AcDbEntity
  8
Layer 1
 62
     7
370
    25
100
AcDbVertex
100
AcDb2dVertex
 10
384.881588987981
 20
1309.135767630615
 30
0.0
  0
SEQEND
  5
333
330
330
100
AcDbEntity
  8
Layer 1
370
    25
  0
POLYLINE
  5
334
330
3C
100
AcDbEntity
  8
Layer 1
 62
     7
370
    25
100
AcDb2dPolyline
 66
     1
 10
0.0
 20
0.0
 30
0.0
  0
VERTEX
  5
335
330
334
100
AcDbEntity
  8
Layer 1
 62
     7
370
    25
100
AcDbVertex
100
AcDb2dVertex
 10
400.7569334935608
 20
1266.802778817414
 30
0.0
  0
VERTEX
  5
336
330
334
100
AcDbEntity
  8
Layer 1
 62
     7
370
    25
100
AcDbVertex
100
AcDb2dVertex
 10
395.4650945734428
 20
1273.858162116431
 30
0.0
  0
SEQEND
  5
337
330
334
100
AcDbEntity
  8
Layer 1
370
    25
  0
POLYLINE
  5
338
330
3C
100
AcDbEntity
  8
Layer 1
 62
     7
370
    25
100
AcDb2dPolyline
 66
     1
 10
0.0
 20
0.0
 30
0.0
  0
VERTEX
  5
339
330
338
100
AcDbEntity
  8
Layer 1
 62
     7
370
    25
100
AcDbVertex
100
AcDb2dVertex
 10
395.4650945734428
 20
1273.858162116431
 30
0.0
  0
VERTEX
  5
33A
330
338
100
AcDbEntity
  8
Layer 1
 62
     7
370
    25
100
AcDbVertex
100
AcDb2dVertex
 10
395.4650945734428
 20
1302.080384331598
 30
0.0
  0
SEQEND
  5
33B
330
338
100
AcDbEntity
  8
Layer 1
370
    25
  0
POLYLINE
  5
33C
330
3C
100
AcDbEntity
  8
Layer 1
 62
     7
370
    25
100
AcDb2dPolyline
 66
     1
 10
0.0
 20
0.0
 30
0.0
  0
VERTEX
  5
33D
330
33C
100
AcDbEntity
  8
Layer 1
 62
     7
370
    25
100
AcDbVertex
100
AcDb2dVertex
 10
395.4650945734428
 20
1302.080384331598
 30
0.0
  0
VERTEX
  5
33E
330
33C
100
AcDbEntity
  8
Layer 1
 62
     7
370
    25
100
AcDbVertex
100
AcDb2dVertex
 10
400.7569334935608
 20
1309.135767630615
 30
0.0
  0
SEQEND
  5
33F
330
33C
100
AcDbEntity
  8
Layer 1
370
    25
  0
POLYLINE
  5
340
330
3C
100
AcDbEntity
  8
Layer 1
 62
     7
370
    25
100
AcDb2dPolyline
 66
     1
 10
0.0
 20
0.0
 30
0.0
  0
VERTEX
  5
341
330
340
100
AcDbEntity
  8
Layer 1
 62
     7
370
    25
100
AcDbVertex
100
AcDb2dVertex
 10
400.7569334935608
 20
1309.135767630615
 30
0.0
  0
VERTEX
  5
342
330
340
100
AcDbEntity
  8
Layer 1
 62
     7
370
    25
100
AcDbVertex
100
AcDb2dVertex
 10
406.0486001589045
 20
1309.135767630615
 30
0.0
  0
SEQEND
  5
343
330
340
100
AcDbEntity
  8
Layer 1
370
    25
  0
POLYLINE
  5
344
330
3C
100
AcDbEntity
  8
Layer 1
 62
     7
370
    25
100
AcDb2dPolyline
 66
     1
 10
0.0
 20
0.0
 30
0.0
  0
VERTEX
  5
345
330
344
100
AcDbEntity
  8
Layer 1
 62
     7
370
    25
100
AcDbVertex
100
AcDb2dVertex
 10
406.0486001589045
 20
1309.135767630615
 30
0.0
  0
VERTEX
  5
346
330
344
100
AcDbEntity
  8
Layer 1
 62
     7
370
    25
100
AcDbVertex
100
AcDb2dVertex
 10
411.3402668242483
 20
1302.080384331598
 30
0.0
  0
SEQEND
  5
347
330
344
100
AcDbEntity
  8
Layer 1
370
    25
  0
POLYLINE
  5
348
330
3C
100
AcDbEntity
  8
Layer 1
 62
     7
370
    25
100
AcDb2dPolyline
 66
     1
 10
0.0
 20
0.0
 30
0.0
  0
VERTEX
  5
349
330
348
100
AcDbEntity
  8
Layer 1
 62
     7
370
    25
100
AcDbVertex
100
AcDb2dVertex
 10
411.3402668242483
 20
1302.080384331598
 30
0.0
  0
VERTEX
  5
34A
330
348
100
AcDbEntity
  8
Layer 1
 62
     7
370
    25
100
AcDbVertex
100
AcDb2dVertex
 10
411.3402668242483
 20
1273.858162116431
 30
0.0
  0
SEQEND
  5
34B
330
348
100
AcDbEntity
  8
Layer 1
370
    25
  0
POLYLINE
  5
34C
330
3C
100
AcDbEntity
  8
Layer 1
 62
     7
370
    25
100
AcDb2dPolyline
 66
     1
 10
0.0
 20
0.0
 30
0.0
  0
VERTEX
  5
34D
330
34C
100
AcDbEntity
  8
Layer 1
 62
     7
370
    25
100
AcDbVertex
100
AcDb2dVertex
 10
411.3402668242483
 20
1273.858162116431
 30
0.0
  0
VERTEX
  5
34E
330
34C
100
AcDbEntity
  8
Layer 1
 62
     7
370
    25
100
AcDbVertex
100
AcDb2dVertex
 10
406.0486001589045
 20
1266.802778817414
 30
0.0
  0
SEQEND
  5
34F
330
34C
100
AcDbEntity
  8
Layer 1
370
    25
  0
POLYLINE
  5
350
330
3C
100
AcDbEntity
  8
Layer 1
 62
     7
370
    25
100
AcDb2dPolyline
 66
     1
 10
0.0
 20
0.0
 30
0.0
  0
VERTEX
  5
351
330
350
100
AcDbEntity
  8
Layer 1
 62
     7
370
    25
100
AcDbVertex
100
AcDb2dVertex
 10
406.0486001589045
 20
1266.802778817414
 30
0.0
  0
VERTEX
  5
352
330
350
100
AcDbEntity
  8
Layer 1
 62
     7
370
    25
100
AcDbVertex
100
AcDb2dVertex
 10
400.7569334935608
 20
1266.802778817414
 30
0.0
  0
SEQEND
  5
353
330
350
100
AcDbEntity
  8
Layer 1
370
    25
  0
POLYLINE
  5
354
330
3C
100
AcDbEntity
  8
Layer 1
370
     0
100
AcDb2dPolyline
 66
     1
 10
0.0
 20
0.0
 30
0.0
  0
VERTEX
  5
355
330
354
100
AcDbEntity
  8
Layer 1
370
     0
100
AcDbVertex
100
AcDb2dVertex
 10
899.3525117109258
 20
1084.565668131636
 30
0.0
  0
VERTEX
  5
356
330
354
100
AcDbEntity
  8
Layer 1
370
     0
100
AcDbVertex
100
AcDb2dVertex
 10
904.3530678077659
 20
1054.565604391307
 30
0.0
  0
VERTEX
  5
357
330
354
100
AcDbEntity
  8
Layer 1
370
     0
100
AcDbVertex
100
AcDb2dVertex
 10
894.3526446331828
 20
1054.565604391307
 30
0.0
  0
SEQEND
  5
358
330
354
100
AcDbEntity
  8
Layer 1
370
     0
  0
HATCH
  5
359
330
3C
100
AcDbEntity
  8
Layer 1
 62
     7
100
AcDbHatch
 10
0.0
 20
0.0
 30
0.0
210
0.0
220
0.0
230
1.0
  2
SOLID
 70
     1
 71
     0
 91
        1
 92
        1
 93
        3
 72
     1
 10
899.3525117109258
 20
1084.565668131636
 11
904.3530678077659
 21
1054.565604391307
 72
     1
 10
904.3530678077659
 20
1054.565604391307
 11
894.3526446331828
 21
1054.565604391307
 72
     1
 10
894.3526446331828
 20
1054.565604391307
 11
899.3525117109258
 21
1084.565668131636
 97
        0
 75
     2
 76
     1
 98
        0
  0
POLYLINE
  5
35A
330
3C
100
AcDbEntity
  8
Layer 1
370
     0
100
AcDb2dPolyline
 66
     1
 10
0.0
 20
0.0
 30
0.0
  0
VERTEX
  5
35B
330
35A
100
AcDbEntity
  8
Layer 1
370
     0
100
AcDbVertex
100
AcDb2dVertex
 10
899.3525117109258
 20
629.5660507323655
 30
0.0
  0
VERTEX
  5
35C
330
35A
100
AcDbEntity
  8
Layer 1
370
     0
100
AcDbVertex
100
AcDb2dVertex
 10
894.3526446331828
 20
659.5661144726953
 30
0.0
  0
VERTEX
  5
35D
330
35A
100
AcDbEntity
  8
Layer 1
370
     0
100
AcDbVertex
100
AcDb2dVertex
 10
904.3530678077659
 20
659.5661144726953
 30
0.0
  0
SEQEND
  5
35E
330
35A
100
AcDbEntity
  8
Layer 1
370
     0
  0
HATCH
  5
35F
330
3C
100
AcDbEntity
  8
Layer 1
 62
     7
100
AcDbHatch
 10
0.0
 20
0.0
 30
0.0
210
0.0
220
0.0
230
1.0
  2
SOLID
 70
     1
 71
     0
 91
        1
 92
        1
 93
        3
 72
     1
 10
899.3525117109258
 20
629.5660507323655
 11
894.3526446331828
 21
659.5661144726953
 72
     1
 10
894.3526446331828
 20
659.5661144726953
 11
904.3530678077659
 21
659.5661144726953
 72
     1
 10
904.3530678077659
 20
659.5661144726953
 11
899.3525117109258
 21
629.5660507323655
 97
        0
 75
     2
 76
     1
 98
        0
  0
POLYLINE
  5
360
330
3C
100
AcDbEntity
  8
Layer 1
 62
     7
370
    25
100
AcDb2dPolyline
 66
     1
 10
0.0
 20
0.0
 30
0.0
  0
VERTEX
  5
361
330
360
100
AcDbEntity
  8
Layer 1
 62
     7
370
    25
100
AcDbVertex
100
AcDb2dVertex
 10
712.2121688757665
 20
1084.565668131636
 30
0.0
  0
VERTEX
  5
362
330
360
100
AcDbEntity
  8
Layer 1
 62
     7
370
    25
100
AcDbVertex
100
AcDb2dVertex
 10
909.3529348855091
 20
1084.565668131636
 30
0.0
  0
SEQEND
  5
363
330
360
100
AcDbEntity
  8
Layer 1
370
    25
  0
POLYLINE
  5
364
330
3C
100
AcDbEntity
  8
Layer 1
 62
     7
370
    25
100
AcDb2dPolyline
 66
     1
 10
0.0
 20
0.0
 30
0.0
  0
VERTEX
  5
365
330
364
100
AcDbEntity
  8
Layer 1
 62
     7
370
    25
100
AcDbVertex
100
AcDb2dVertex
 10
711.0814885375074
 20
629.5660507323655
 30
0.0
  0
VERTEX
  5
366
330
364
100
AcDbEntity
  8
Layer 1
 62
     7
370
    25
100
AcDbVertex
100
AcDb2dVertex
 10
909.3529348855091
 20
629.5660507323655
 30
0.0
  0
SEQEND
  5
367
330
364
100
AcDbEntity
  8
Layer 1
370
    25
  0
POLYLINE
  5
368
330
3C
100
AcDbEntity
  8
Layer 1
 62
     7
370
    25
100
AcDb2dPolyline
 66
     1
 10
0.0
 20
0.0
 30
0.0
  0
VERTEX
  5
369
330
368
100
AcDbEntity
  8
Layer 1
 62
     7
370
    25
100
AcDbVertex
100
AcDb2dVertex
 10
899.3525117109258
 20
1084.565668131636
 30
0.0
  0
VERTEX
  5
36A
330
368
100
AcDbEntity
  8
Layer 1
 62
     7
370
    25
100
AcDbVertex
100
AcDb2dVertex
 10
899.3525117109258
 20
629.5660507323655
 30
0.0
  0
SEQEND
  5
36B
330
368
100
AcDbEntity
  8
Layer 1
370
    25
  0
POLYLINE
  5
36C
330
3C
100
AcDbEntity
  8
Layer 1
 62
     7
370
    25
100
AcDb2dPolyline
 66
     1
 10
0.0
 20
0.0
 30
0.0
  0
VERTEX
  5
36D
330
36C
100
AcDbEntity
  8
Layer 1
 62
     7
370
    25
100
AcDbVertex
100
AcDb2dVertex
 10
887.1151880377698
 20
808.8529538993492
 30
0.0
  0
VERTEX
  5
36E
330
36C
100
AcDbEntity
  8
Layer 1
 62
     7
370
    25
100
AcDbVertex
100
AcDb2dVertex
 10
844.7821992245683
 20
808.8529538993492
 30
0.0
  0
SEQEND
  5
36F
330
36C
100
AcDbEntity
  8
Layer 1
370
    25
  0
POLYLINE
  5
370
330
3C
100
AcDbEntity
  8
Layer 1
 62
     7
370
    25
100
AcDb2dPolyline
 66
     1
 10
0.0
 20
0.0
 30
0.0
  0
VERTEX
  5
371
330
370
100
AcDbEntity
  8
Layer 1
 62
     7
370
    25
100
AcDbVertex
100
AcDb2dVertex
 10
844.7821992245683
 20
808.8529538993492
 30
0.0
  0
VERTEX
  5
372
330
370
100
AcDbEntity
  8
Layer 1
 62
     7
370
    25
100
AcDbVertex
100
AcDb2dVertex
 10
873.0044214397351
 20
792.9777816485438
 30
0.0
  0
SEQEND
  5
373
330
370
100
AcDbEntity
  8
Layer 1
370
    25
  0
POLYLINE
  5
374
330
3C
100
AcDbEntity
  8
Layer 1
 62
     7
370
    25
100
AcDb2dPolyline
 66
     1
 10
0.0
 20
0.0
 30
0.0
  0
VERTEX
  5
375
330
374
100
AcDbEntity
  8
Layer 1
 62
     7
370
    25
100
AcDbVertex
100
AcDb2dVertex
 10
873.0044214397351
 20
792.9777816485438
 30
0.0
  0
VERTEX
  5
376
330
374
100
AcDbEntity
  8
Layer 1
 62
     7
370
    25
100
AcDbVertex
100
AcDb2dVertex
 10
873.0044214397351
 20
814.144620564693
 30
0.0
  0
SEQEND
  5
377
330
374
100
AcDbEntity
  8
Layer 1
370
    25
  0
POLYLINE
  5
378
330
3C
100
AcDbEntity
  8
Layer 1
 62
     7
370
    25
100
AcDb2dPolyline
 66
     1
 10
0.0
 20
0.0
 30
0.0
  0
VERTEX
  5
379
330
378
100
AcDbEntity
  8
Layer 1
 62
     7
370
    25
100
AcDbVertex
100
AcDb2dVertex
 10
880.0599769935267
 20
824.7281261501548
 30
0.0
  0
VERTEX
  5
37A
330
378
100
AcDbEntity
  8
Layer 1
 62
     7
370
    25
100
AcDbVertex
100
AcDb2dVertex
 10
887.1151880377698
 20
830.0197928154986
 30
0.0
  0
SEQEND
  5
37B
330
378
100
AcDbEntity
  8
Layer 1
370
    25
  0
POLYLINE
  5
37C
330
3C
100
AcDbEntity
  8
Layer 1
 62
     7
370
    25
100
AcDb2dPolyline
 66
     1
 10
0.0
 20
0.0
 30
0.0
  0
VERTEX
  5
37D
330
37C
100
AcDbEntity
  8
Layer 1
 62
     7
370
    25
100
AcDbVertex
100
AcDb2dVertex
 10
887.1151880377698
 20
830.0197928154986
 30
0.0
  0
VERTEX
  5
37E
330
37C
100
AcDbEntity
  8
Layer 1
 62
     7
370
    25
100
AcDbVertex
100
AcDb2dVertex
 10
887.1151880377698
 20
840.6027816366376
 30
0.0
  0
SEQEND
  5
37F
330
37C
100
AcDbEntity
  8
Layer 1
370
    25
  0
POLYLINE
  5
380
330
3C
100
AcDbEntity
  8
Layer 1
 62
     7
370
    25
100
AcDb2dPolyline
 66
     1
 10
0.0
 20
0.0
 30
0.0
  0
VERTEX
  5
381
330
380
100
AcDbEntity
  8
Layer 1
 62
     7
370
    25
100
AcDbVertex
100
AcDb2dVertex
 10
887.1151880377698
 20
840.6027816366376
 30
0.0
  0
VERTEX
  5
382
330
380
100
AcDbEntity
  8
Layer 1
 62
     7
370
    25
100
AcDbVertex
100
AcDb2dVertex
 10
880.0599769935267
 20
845.8946205567555
 30
0.0
  0
SEQEND
  5
383
330
380
100
AcDbEntity
  8
Layer 1
370
    25
  0
POLYLINE
  5
384
330
3C
100
AcDbEntity
  8
Layer 1
 62
     7
370
    25
100
AcDb2dPolyline
 66
     1
 10
0.0
 20
0.0
 30
0.0
  0
VERTEX
  5
385
330
384
100
AcDbEntity
  8
Layer 1
 62
     7
370
    25
100
AcDbVertex
100
AcDb2dVertex
 10
880.0599769935267
 20
845.8946205567555
 30
0.0
  0
VERTEX
  5
386
330
384
100
AcDbEntity
  8
Layer 1
 62
     7
370
    25
100
AcDbVertex
100
AcDb2dVertex
 10
865.949210395492
 20
845.8946205567555
 30
0.0
  0
SEQEND
  5
387
330
384
100
AcDbEntity
  8
Layer 1
370
    25
  0
POLYLINE
  5
388
330
3C
100
AcDbEntity
  8
Layer 1
 62
     7
370
    25
100
AcDb2dPolyline
 66
     1
 10
0.0
 20
0.0
 30
0.0
  0
VERTEX
  5
389
330
388
100
AcDbEntity
  8
Layer 1
 62
     7
370
    25
100
AcDbVertex
100
AcDb2dVertex
 10
865.949210395492
 20
845.8946205567555
 30
0.0
  0
VERTEX
  5
38A
330
388
100
AcDbEntity
  8
Layer 1
 62
     7
370
    25
100
AcDbVertex
100
AcDb2dVertex
 10
858.8939993512488
 20
840.6027816366376
 30
0.0
  0
SEQEND
  5
38B
330
388
100
AcDbEntity
  8
Layer 1
370
    25
  0
POLYLINE
  5
38C
330
3C
100
AcDbEntity
  8
Layer 1
 62
     7
370
    25
100
AcDb2dPolyline
 66
     1
 10
0.0
 20
0.0
 30
0.0
  0
VERTEX
  5
38D
330
38C
100
AcDbEntity
  8
Layer 1
 62
     7
370
    25
100
AcDbVertex
100
AcDb2dVertex
 10
858.8939993512488
 20
840.6027816366376
 30
0.0
  0
VERTEX
  5
38E
330
38C
100
AcDbEntity
  8
Layer 1
 62
     7
370
    25
100
AcDbVertex
100
AcDb2dVertex
 10
858.8939993512488
 20
824.7281261501548
 30
0.0
  0
SEQEND
  5
38F
330
38C
100
AcDbEntity
  8
Layer 1
370
    25
  0
POLYLINE
  5
390
330
3C
100
AcDbEntity
  8
Layer 1
 62
     7
370
    25
100
AcDb2dPolyline
 66
     1
 10
0.0
 20
0.0
 30
0.0
  0
VERTEX
  5
391
330
390
100
AcDbEntity
  8
Layer 1
 62
     7
370
    25
100
AcDbVertex
100
AcDb2dVertex
 10
858.8939993512488
 20
824.7281261501548
 30
0.0
  0
VERTEX
  5
392
330
390
100
AcDbEntity
  8
Layer 1
 62
     7
370
    25
100
AcDbVertex
100
AcDb2dVertex
 10
844.7821992245683
 20
824.7281261501548
 30
0.0
  0
SEQEND
  5
393
330
390
100
AcDbEntity
  8
Layer 1
370
    25
  0
POLYLINE
  5
394
330
3C
100
AcDbEntity
  8
Layer 1
 62
     7
370
    25
100
AcDb2dPolyline
 66
     1
 10
0.0
 20
0.0
 30
0.0
  0
VERTEX
  5
395
330
394
100
AcDbEntity
  8
Layer 1
 62
     7
370
    25
100
AcDbVertex
100
AcDb2dVertex
 10
844.7821992245683
 20
824.7281261501548
 30
0.0
  0
VERTEX
  5
396
330
394
100
AcDbEntity
  8
Layer 1
 62
     7
370
    25
100
AcDbVertex
100
AcDb2dVertex
 10
844.7821992245683
 20
845.8946205567555
 30
0.0
  0
SEQEND
  5
397
330
394
100
AcDbEntity
  8
Layer 1
370
    25
  0
POLYLINE
  5
398
330
3C
100
AcDbEntity
  8
Layer 1
 62
     7
370
    25
100
AcDb2dPolyline
 66
     1
 10
0.0
 20
0.0
 30
0.0
  0
VERTEX
  5
399
330
398
100
AcDbEntity
  8
Layer 1
 62
     7
370
    25
100
AcDbVertex
100
AcDb2dVertex
 10
880.0599769935267
 20
856.477953887443
 30
0.0
  0
VERTEX
  5
39A
330
398
100
AcDbEntity
  8
Layer 1
 62
     7
370
    25
100
AcDbVertex
100
AcDb2dVertex
 10
887.1151880377698
 20
861.7697928075611
 30
0.0
  0
SEQEND
  5
39B
330
398
100
AcDbEntity
  8
Layer 1
370
    25
  0
POLYLINE
  5
39C
330
3C
100
AcDbEntity
  8
Layer 1
 62
     7
370
    25
100
AcDb2dPolyline
 66
     1
 10
0.0
 20
0.0
 30
0.0
  0
VERTEX
  5
39D
330
39C
100
AcDbEntity
  8
Layer 1
 62
     7
370
    25
100
AcDbVertex
100
AcDb2dVertex
 10
887.1151880377698
 20
861.7697928075611
 30
0.0
  0
VERTEX
  5
39E
330
39C
100
AcDbEntity
  8
Layer 1
 62
     7
370
    25
100
AcDbVertex
100
AcDb2dVertex
 10
887.1151880377698
 20
872.3527816287001
 30
0.0
  0
SEQEND
  5
39F
330
39C
100
AcDbEntity
  8
Layer 1
370
    25
  0
POLYLINE
  5
3A0
330
3C
100
AcDbEntity
  8
Layer 1
 62
     7
370
    25
100
AcDb2dPolyline
 66
     1
 10
0.0
 20
0.0
 30
0.0
  0
VERTEX
  5
3A1
330
3A0
100
AcDbEntity
  8
Layer 1
 62
     7
370
    25
100
AcDbVertex
100
AcDb2dVertex
 10
887.1151880377698
 20
872.3527816287001
 30
0.0
  0
VERTEX
  5
3A2
330
3A0
100
AcDbEntity
  8
Layer 1
 62
     7
370
    25
100
AcDbVertex
100
AcDb2dVertex
 10
880.0599769935267
 20
877.6444482940437
 30
0.0
  0
SEQEND
  5
3A3
330
3A0
100
AcDbEntity
  8
Layer 1
370
    25
  0
POLYLINE
  5
3A4
330
3C
100
AcDbEntity
  8
Layer 1
 62
     7
370
    25
100
AcDb2dPolyline
 66
     1
 10
0.0
 20
0.0
 30
0.0
  0
VERTEX
  5
3A5
330
3A4
100
AcDbEntity
  8
Layer 1
 62
     7
370
    25
100
AcDbVertex
100
AcDb2dVertex
 10
880.0599769935267
 20
877.6444482940437
 30
0.0
  0
VERTEX
  5
3A6
330
3A4
100
AcDbEntity
  8
Layer 1
 62
     7
370
    25
100
AcDbVertex
100
AcDb2dVertex
 10
865.949210395492
 20
877.6444482940437
 30
0.0
  0
SEQEND
  5
3A7
330
3A4
100
AcDbEntity
  8
Layer 1
370
    25
  0
POLYLINE
  5
3A8
330
3C
100
AcDbEntity
  8
Layer 1
 62
     7
370
    25
100
AcDb2dPolyline
 66
     1
 10
0.0
 20
0.0
 30
0.0
  0
VERTEX
  5
3A9
330
3A8
100
AcDbEntity
  8
Layer 1
 62
     7
370
    25
100
AcDbVertex
100
AcDb2dVertex
 10
865.949210395492
 20
877.6444482940437
 30
0.0
  0
VERTEX
  5
3AA
330
3A8
100
AcDbEntity
  8
Layer 1
 62
     7
370
    25
100
AcDbVertex
100
AcDb2dVertex
 10
858.8939993512488
 20
872.3527816287001
 30
0.0
  0
SEQEND
  5
3AB
330
3A8
100
AcDbEntity
  8
Layer 1
370
    25
  0
POLYLINE
  5
3AC
330
3C
100
AcDbEntity
  8
Layer 1
 62
     7
370
    25
100
AcDb2dPolyline
 66
     1
 10
0.0
 20
0.0
 30
0.0
  0
VERTEX
  5
3AD
330
3AC
100
AcDbEntity
  8
Layer 1
 62
     7
370
    25
100
AcDbVertex
100
AcDb2dVertex
 10
858.8939993512488
 20
872.3527816287001
 30
0.0
  0
VERTEX
  5
3AE
330
3AC
100
AcDbEntity
  8
Layer 1
 62
     7
370
    25
100
AcDbVertex
100
AcDb2dVertex
 10
858.8939993512488
 20
856.477953887443
 30
0.0
  0
SEQEND
  5
3AF
330
3AC
100
AcDbEntity
  8
Layer 1
370
    25
  0
POLYLINE
  5
3B0
330
3C
100
AcDbEntity
  8
Layer 1
 62
     7
370
    25
100
AcDb2dPolyline
 66
     1
 10
0.0
 20
0.0
 30
0.0
  0
VERTEX
  5
3B1
330
3B0
100
AcDbEntity
  8
Layer 1
 62
     7
370
    25
100
AcDbVertex
100
AcDb2dVertex
 10
858.8939993512488
 20
856.477953887443
 30
0.0
  0
VERTEX
  5
3B2
330
3B0
100
AcDbEntity
  8
Layer 1
 62
     7
370
    25
100
AcDbVertex
100
AcDb2dVertex
 10
844.7821992245683
 20
856.477953887443
 30
0.0
  0
SEQEND
  5
3B3
330
3B0
100
AcDbEntity
  8
Layer 1
370
    25
  0
POLYLINE
  5
3B4
330
3C
100
AcDbEntity
  8
Layer 1
 62
     7
370
    25
100
AcDb2dPolyline
 66
     1
 10
0.0
 20
0.0
 30
0.0
  0
VERTEX
  5
3B5
330
3B4
100
AcDbEntity
  8
Layer 1
 62
     7
370
    25
100
AcDbVertex
100
AcDb2dVertex
 10
844.7821992245683
 20
856.477953887443
 30
0.0
  0
VERTEX
  5
3B6
330
3B4
100
AcDbEntity
  8
Layer 1
 62
     7
370
    25
100
AcDbVertex
100
AcDb2dVertex
 10
844.7821992245683
 20
877.6444482940437
 30
0.0
  0
SEQEND
  5
3B7
330
3B4
100
AcDbEntity
  8
Layer 1
370
    25
  0
POLYLINE
  5
3B8
330
3C
100
AcDbEntity
  8
Layer 1
370
     0
100
AcDb2dPolyline
 66
     1
 10
0.0
 20
0.0
 30
0.0
  0
VERTEX
  5
3B9
330
3B8
100
AcDbEntity
  8
Layer 1
370
     0
100
AcDbVertex
100
AcDb2dVertex
 10
823.8584117949035
 20
654.566075140178
 30
0.0
  0
VERTEX
  5
3BA
330
3B8
100
AcDbEntity
  8
Layer 1
370
     0
100
AcDbVertex
100
AcDb2dVertex
 10
818.8578556980633
 20
684.5661388805078
 30
0.0
  0
VERTEX
  5
3BB
330
3B8
100
AcDbEntity
  8
Layer 1
370
     0
100
AcDbVertex
100
AcDb2dVertex
 10
828.857934363098
 20
684.5661388805078
 30
0.0
  0
SEQEND
  5
3BC
330
3B8
100
AcDbEntity
  8
Layer 1
370
     0
  0
HATCH
  5
3BD
330
3C
100
AcDbEntity
  8
Layer 1
 62
     7
100
AcDbHatch
 10
0.0
 20
0.0
 30
0.0
210
0.0
220
0.0
230
1.0
  2
SOLID
 70
     1
 71
     0
 91
        1
 92
        1
 93
        3
 72
     1
 10
823.8584117949035
 20
654.566075140178
 11
818.8578556980633
 21
684.5661388805078
 72
     1
 10
818.8578556980633
 20
684.5661388805078
 11
828.857934363098
 21
684.5661388805078
 72
     1
 10
828.857934363098
 20
684.5661388805078
 11
823.8584117949035
 21
654.566075140178
 97
        0
 75
     2
 76
     1
 98
        0
  0
POLYLINE
  5
3BE
330
3C
100
AcDbEntity
  8
Layer 1
370
     0
100
AcDb2dPolyline
 66
     1
 10
0.0
 20
0.0
 30
0.0
  0
VERTEX
  5
3BF
330
3BE
100
AcDbEntity
  8
Layer 1
370
     0
100
AcDbVertex
100
AcDb2dVertex
 10
823.8584117949035
 20
1059.56547146905
 30
0.0
  0
VERTEX
  5
3C0
330
3BE
100
AcDbEntity
  8
Layer 1
370
     0
100
AcDbVertex
100
AcDb2dVertex
 10
828.857934363098
 20
1029.565752238268
 30
0.0
  0
VERTEX
  5
3C1
330
3BE
100
AcDbEntity
  8
Layer 1
370
     0
100
AcDbVertex
100
AcDb2dVertex
 10
818.8578556980633
 20
1029.565752238268
 30
0.0
  0
SEQEND
  5
3C2
330
3BE
100
AcDbEntity
  8
Layer 1
370
     0
  0
HATCH
  5
3C3
330
3C
100
AcDbEntity
  8
Layer 1
 62
     7
100
AcDbHatch
 10
0.0
 20
0.0
 30
0.0
210
0.0
220
0.0
230
1.0
  2
SOLID
 70
     1
 71
     0
 91
        1
 92
        1
 93
        3
 72
     1
 10
823.8584117949035
 20
1059.56547146905
 11
828.857934363098
 21
1029.565752238268
 72
     1
 10
828.857934363098
 20
1029.565752238268
 11
818.8578556980633
 21
1029.565752238268
 72
     1
 10
818.8578556980633
 20
1029.565752238268
 11
823.8584117949035
 21
1059.56547146905
 97
        0
 75
     2
 76
     1
 98
        0
  0
POLYLINE
  5
3C4
330
3C
100
AcDbEntity
  8
Layer 1
 62
     7
370
    25
100
AcDb2dPolyline
 66
     1
 10
0.0
 20
0.0
 30
0.0
  0
VERTEX
  5
3C5
330
3C4
100
AcDbEntity
  8
Layer 1
 62
     7
370
    25
100
AcDbVertex
100
AcDb2dVertex
 10
710.516837387475
 20
654.566075140178
 30
0.0
  0
VERTEX
  5
3C6
330
3C4
100
AcDbEntity
  8
Layer 1
 62
     7
370
    25
100
AcDbVertex
100
AcDb2dVertex
 10
833.8584904599381
 20
654.566075140178
 30
0.0
  0
SEQEND
  5
3C7
330
3C4
100
AcDbEntity
  8
Layer 1
370
    25
  0
POLYLINE
  5
3C8
330
3C
100
AcDbEntity
  8
Layer 1
 62
     7
370
    25
100
AcDb2dPolyline
 66
     1
 10
0.0
 20
0.0
 30
0.0
  0
VERTEX
  5
3C9
330
3C8
100
AcDbEntity
  8
Layer 1
 62
     7
370
    25
100
AcDbVertex
100
AcDb2dVertex
 10
710.516837387475
 20
1059.56547146905
 30
0.0
  0
VERTEX
  5
3CA
330
3C8
100
AcDbEntity
  8
Layer 1
 62
     7
370
    25
100
AcDbVertex
100
AcDb2dVertex
 10
833.8584904599381
 20
1059.56547146905
 30
0.0
  0
SEQEND
  5
3CB
330
3C8
100
AcDbEntity
  8
Layer 1
370
    25
  0
POLYLINE
  5
3CC
330
3C
100
AcDbEntity
  8
Layer 1
 62
     7
370
    25
100
AcDb2dPolyline
 66
     1
 10
0.0
 20
0.0
 30
0.0
  0
VERTEX
  5
3CD
330
3CC
100
AcDbEntity
  8
Layer 1
 62
     7
370
    25
100
AcDbVertex
100
AcDb2dVertex
 10
823.8584117949035
 20
654.566075140178
 30
0.0
  0
VERTEX
  5
3CE
330
3CC
100
AcDbEntity
  8
Layer 1
 62
     7
370
    25
100
AcDbVertex
100
AcDb2dVertex
 10
823.8584117949035
 20
1059.56547146905
 30
0.0
  0
SEQEND
  5
3CF
330
3CC
100
AcDbEntity
  8
Layer 1
370
    25
  0
POLYLINE
  5
3D0
330
3C
100
AcDbEntity
  8
Layer 1
 62
     7
370
    25
100
AcDb2dPolyline
 66
     1
 10
0.0
 20
0.0
 30
0.0
  0
VERTEX
  5
3D1
330
3D0
100
AcDbEntity
  8
Layer 1
 62
     7
370
    25
100
AcDbVertex
100
AcDb2dVertex
 10
811.6210881217476
 20
808.8529538993492
 30
0.0
  0
VERTEX
  5
3D2
330
3D0
100
AcDbEntity
  8
Layer 1
 62
     7
370
    25
100
AcDbVertex
100
AcDb2dVertex
 10
769.2880993085461
 20
808.8529538993492
 30
0.0
  0
SEQEND
  5
3D3
330
3D0
100
AcDbEntity
  8
Layer 1
370
    25
  0
POLYLINE
  5
3D4
330
3C
100
AcDbEntity
  8
Layer 1
 62
     7
370
    25
100
AcDb2dPolyline
 66
     1
 10
0.0
 20
0.0
 30
0.0
  0
VERTEX
  5
3D5
330
3D4
100
AcDbEntity
  8
Layer 1
 62
     7
370
    25
100
AcDbVertex
100
AcDb2dVertex
 10
769.2880993085461
 20
808.8529538993492
 30
0.0
  0
VERTEX
  5
3D6
330
3D4
100
AcDbEntity
  8
Layer 1
 62
     7
370
    25
100
AcDbVertex
100
AcDb2dVertex
 10
797.5096325046156
 20
792.9777816485438
 30
0.0
  0
SEQEND
  5
3D7
330
3D4
100
AcDbEntity
  8
Layer 1
370
    25
  0
POLYLINE
  5
3D8
330
3C
100
AcDbEntity
  8
Layer 1
 62
     7
370
    25
100
AcDb2dPolyline
 66
     1
 10
0.0
 20
0.0
 30
0.0
  0
VERTEX
  5
3D9
330
3D8
100
AcDbEntity
  8
Layer 1
 62
     7
370
    25
100
AcDbVertex
100
AcDb2dVertex
 10
797.5096325046156
 20
792.9777816485438
 30
0.0
  0
VERTEX
  5
3DA
330
3D8
100
AcDbEntity
  8
Layer 1
 62
     7
370
    25
100
AcDbVertex
100
AcDb2dVertex
 10
797.5096325046156
 20
814.144620564693
 30
0.0
  0
SEQEND
  5
3DB
330
3D8
100
AcDbEntity
  8
Layer 1
370
    25
  0
POLYLINE
  5
3DC
330
3C
100
AcDbEntity
  8
Layer 1
 62
     7
370
    25
100
AcDb2dPolyline
 66
     1
 10
0.0
 20
0.0
 30
0.0
  0
VERTEX
  5
3DD
330
3DC
100
AcDbEntity
  8
Layer 1
 62
     7
370
    25
100
AcDbVertex
100
AcDb2dVertex
 10
811.6210881217476
 20
830.0197928154986
 30
0.0
  0
VERTEX
  5
3DE
330
3DC
100
AcDbEntity
  8
Layer 1
 62
     7
370
    25
100
AcDbVertex
100
AcDb2dVertex
 10
804.5655325679559
 20
824.7281261501548
 30
0.0
  0
SEQEND
  5
3DF
330
3DC
100
AcDbEntity
  8
Layer 1
370
    25
  0
POLYLINE
  5
3E0
330
3C
100
AcDbEntity
  8
Layer 1
 62
     7
370
    25
100
AcDb2dPolyline
 66
     1
 10
0.0
 20
0.0
 30
0.0
  0
VERTEX
  5
3E1
330
3E0
100
AcDbEntity
  8
Layer 1
 62
     7
370
    25
100
AcDbVertex
100
AcDb2dVertex
 10
804.5655325679559
 20
824.7281261501548
 30
0.0
  0
VERTEX
  5
3E2
330
3E0
100
AcDbEntity
  8
Layer 1
 62
     7
370
    25
100
AcDbVertex
100
AcDb2dVertex
 10
776.3433103527892
 20
824.7281261501548
 30
0.0
  0
SEQEND
  5
3E3
330
3E0
100
AcDbEntity
  8
Layer 1
370
    25
  0
POLYLINE
  5
3E4
330
3C
100
AcDbEntity
  8
Layer 1
 62
     7
370
    25
100
AcDb2dPolyline
 66
     1
 10
0.0
 20
0.0
 30
0.0
  0
VERTEX
  5
3E5
330
3E4
100
AcDbEntity
  8
Layer 1
 62
     7
370
    25
100
AcDbVertex
100
AcDb2dVertex
 10
776.3433103527892
 20
824.7281261501548
 30
0.0
  0
VERTEX
  5
3E6
330
3E4
100
AcDbEntity
  8
Layer 1
 62
     7
370
    25
100
AcDbVertex
100
AcDb2dVertex
 10
769.2880993085461
 20
830.0197928154986
 30
0.0
  0
SEQEND
  5
3E7
330
3E4
100
AcDbEntity
  8
Layer 1
370
    25
  0
POLYLINE
  5
3E8
330
3C
100
AcDbEntity
  8
Layer 1
 62
     7
370
    25
100
AcDb2dPolyline
 66
     1
 10
0.0
 20
0.0
 30
0.0
  0
VERTEX
  5
3E9
330
3E8
100
AcDbEntity
  8
Layer 1
 62
     7
370
    25
100
AcDbVertex
100
AcDb2dVertex
 10
769.2880993085461
 20
830.0197928154986
 30
0.0
  0
VERTEX
  5
3EA
330
3E8
100
AcDbEntity
  8
Layer 1
 62
     7
370
    25
100
AcDbVertex
100
AcDb2dVertex
 10
769.2880993085461
 20
835.3114594808424
 30
0.0
  0
SEQEND
  5
3EB
330
3E8
100
AcDbEntity
  8
Layer 1
370
    25
  0
POLYLINE
  5
3EC
330
3C
100
AcDbEntity
  8
Layer 1
 62
     7
370
    25
100
AcDb2dPolyline
 66
     1
 10
0.0
 20
0.0
 30
0.0
  0
VERTEX
  5
3ED
330
3EC
100
AcDbEntity
  8
Layer 1
 62
     7
370
    25
100
AcDbVertex
100
AcDb2dVertex
 10
769.2880993085461
 20
835.3114594808424
 30
0.0
  0
VERTEX
  5
3EE
330
3EC
100
AcDbEntity
  8
Layer 1
 62
     7
370
    25
100
AcDbVertex
100
AcDb2dVertex
 10
776.3433103527892
 20
840.6027816366376
 30
0.0
  0
SEQEND
  5
3EF
330
3EC
100
AcDbEntity
  8
Layer 1
370
    25
  0
POLYLINE
  5
3F0
330
3C
100
AcDbEntity
  8
Layer 1
 62
     7
370
    25
100
AcDb2dPolyline
 66
     1
 10
0.0
 20
0.0
 30
0.0
  0
VERTEX
  5
3F1
330
3F0
100
AcDbEntity
  8
Layer 1
 62
     7
370
    25
100
AcDbVertex
100
AcDb2dVertex
 10
776.3433103527892
 20
840.6027816366376
 30
0.0
  0
VERTEX
  5
3F2
330
3F0
100
AcDbEntity
  8
Layer 1
 62
     7
370
    25
100
AcDbVertex
100
AcDb2dVertex
 10
804.5655325679559
 20
840.6027816366376
 30
0.0
  0
SEQEND
  5
3F3
330
3F0
100
AcDbEntity
  8
Layer 1
370
    25
  0
POLYLINE
  5
3F4
330
3C
100
AcDbEntity
  8
Layer 1
 62
     7
370
    25
100
AcDb2dPolyline
 66
     1
 10
0.0
 20
0.0
 30
0.0
  0
VERTEX
  5
3F5
330
3F4
100
AcDbEntity
  8
Layer 1
 62
     7
370
    25
100
AcDbVertex
100
AcDb2dVertex
 10
804.5655325679559
 20
840.6027816366376
 30
0.0
  0
VERTEX
  5
3F6
330
3F4
100
AcDbEntity
  8
Layer 1
 62
     7
370
    25
100
AcDbVertex
100
AcDb2dVertex
 10
811.6210881217476
 20
835.3114594808424
 30
0.0
  0
SEQEND
  5
3F7
330
3F4
100
AcDbEntity
  8
Layer 1
370
    25
  0
POLYLINE
  5
3F8
330
3C
100
AcDbEntity
  8
Layer 1
 62
     7
370
    25
100
AcDb2dPolyline
 66
     1
 10
0.0
 20
0.0
 30
0.0
  0
VERTEX
  5
3F9
330
3F8
100
AcDbEntity
  8
Layer 1
 62
     7
370
    25
100
AcDbVertex
100
AcDb2dVertex
 10
811.6210881217476
 20
835.3114594808424
 30
0.0
  0
VERTEX
  5
3FA
330
3F8
100
AcDbEntity
  8
Layer 1
 62
     7
370
    25
100
AcDbVertex
100
AcDb2dVertex
 10
811.6210881217476
 20
830.0197928154986
 30
0.0
  0
SEQEND
  5
3FB
330
3F8
100
AcDbEntity
  8
Layer 1
370
    25
  0
POLYLINE
  5
3FC
330
3C
100
AcDbEntity
  8
Layer 1
 62
     7
370
    25
100
AcDb2dPolyline
 66
     1
 10
0.0
 20
0.0
 30
0.0
  0
VERTEX
  5
3FD
330
3FC
100
AcDbEntity
  8
Layer 1
 62
     7
370
    25
100
AcDbVertex
100
AcDb2dVertex
 10
804.5655325679559
 20
851.1862872220993
 30
0.0
  0
VERTEX
  5
3FE
330
3FC
100
AcDbEntity
  8
Layer 1
 62
     7
370
    25
100
AcDbVertex
100
AcDb2dVertex
 10
811.6210881217476
 20
856.477953887443
 30
0.0
  0
SEQEND
  5
3FF
330
3FC
100
AcDbEntity
  8
Layer 1
370
    25
  0
POLYLINE
  5
400
330
3C
100
AcDbEntity
  8
Layer 1
 62
     7
370
    25
100
AcDb2dPolyline
 66
     1
 10
0.0
 20
0.0
 30
0.0
  0
VERTEX
  5
401
330
400
100
AcDbEntity
  8
Layer 1
 62
     7
370
    25
100
AcDbVertex
100
AcDb2dVertex
 10
811.6210881217476
 20
856.477953887443
 30
0.0
  0
VERTEX
  5
402
330
400
100
AcDbEntity
  8
Layer 1
 62
     7
370
    25
100
AcDbVertex
100
AcDb2dVertex
 10
811.6210881217476
 20
867.060942708582
 30
0.0
  0
SEQEND
  5
403
330
400
100
AcDbEntity
  8
Layer 1
370
    25
  0
POLYLINE
  5
404
330
3C
100
AcDbEntity
  8
Layer 1
 62
     7
370
    25
100
AcDb2dPolyline
 66
     1
 10
0.0
 20
0.0
 30
0.0
  0
VERTEX
  5
405
330
404
100
AcDbEntity
  8
Layer 1
 62
     7
370
    25
100
AcDbVertex
100
AcDb2dVertex
 10
811.6210881217476
 20
867.060942708582
 30
0.0
  0
VERTEX
  5
406
330
404
100
AcDbEntity
  8
Layer 1
 62
     7
370
    25
100
AcDbVertex
100
AcDb2dVertex
 10
804.5655325679559
 20
872.3527816287001
 30
0.0
  0
SEQEND
  5
407
330
404
100
AcDbEntity
  8
Layer 1
370
    25
  0
POLYLINE
  5
408
330
3C
100
AcDbEntity
  8
Layer 1
 62
     7
370
    25
100
AcDb2dPolyline
 66
     1
 10
0.0
 20
0.0
 30
0.0
  0
VERTEX
  5
409
330
408
100
AcDbEntity
  8
Layer 1
 62
     7
370
    25
100
AcDbVertex
100
AcDb2dVertex
 10
804.5655325679559
 20
872.3527816287001
 30
0.0
  0
VERTEX
  5
40A
330
408
100
AcDbEntity
  8
Layer 1
 62
     7
370
    25
100
AcDbVertex
100
AcDb2dVertex
 10
790.4540769508241
 20
872.3527816287001
 30
0.0
  0
SEQEND
  5
40B
330
408
100
AcDbEntity
  8
Layer 1
370
    25
  0
POLYLINE
  5
40C
330
3C
100
AcDbEntity
  8
Layer 1
 62
     7
370
    25
100
AcDb2dPolyline
 66
     1
 10
0.0
 20
0.0
 30
0.0
  0
VERTEX
  5
40D
330
40C
100
AcDbEntity
  8
Layer 1
 62
     7
370
    25
100
AcDbVertex
100
AcDb2dVertex
 10
790.4540769508241
 20
872.3527816287001
 30
0.0
  0
VERTEX
  5
40E
330
40C
100
AcDbEntity
  8
Layer 1
 62
     7
370
    25
100
AcDbVertex
100
AcDb2dVertex
 10
783.3988659065809
 20
867.060942708582
 30
0.0
  0
SEQEND
  5
40F
330
40C
100
AcDbEntity
  8
Layer 1
370
    25
  0
POLYLINE
  5
410
330
3C
100
AcDbEntity
  8
Layer 1
 62
     7
370
    25
100
AcDb2dPolyline
 66
     1
 10
0.0
 20
0.0
 30
0.0
  0
VERTEX
  5
411
330
410
100
AcDbEntity
  8
Layer 1
 62
     7
370
    25
100
AcDbVertex
100
AcDb2dVertex
 10
783.3988659065809
 20
867.060942708582
 30
0.0
  0
VERTEX
  5
412
330
410
100
AcDbEntity
  8
Layer 1
 62
     7
370
    25
100
AcDbVertex
100
AcDb2dVertex
 10
783.3988659065809
 20
851.1862872220993
 30
0.0
  0
SEQEND
  5
413
330
410
100
AcDbEntity
  8
Layer 1
370
    25
  0
POLYLINE
  5
414
330
3C
100
AcDbEntity
  8
Layer 1
 62
     7
370
    25
100
AcDb2dPolyline
 66
     1
 10
0.0
 20
0.0
 30
0.0
  0
VERTEX
  5
415
330
414
100
AcDbEntity
  8
Layer 1
 62
     7
370
    25
100
AcDbVertex
100
AcDb2dVertex
 10
783.3988659065809
 20
851.1862872220993
 30
0.0
  0
VERTEX
  5
416
330
414
100
AcDbEntity
  8
Layer 1
 62
     7
370
    25
100
AcDbVertex
100
AcDb2dVertex
 10
769.2880993085461
 20
851.1862872220993
 30
0.0
  0
SEQEND
  5
417
330
414
100
AcDbEntity
  8
Layer 1
370
    25
  0
POLYLINE
  5
418
330
3C
100
AcDbEntity
  8
Layer 1
 62
     7
370
    25
100
AcDb2dPolyline
 66
     1
 10
0.0
 20
0.0
 30
0.0
  0
VERTEX
  5
419
330
418
100
AcDbEntity
  8
Layer 1
 62
     7
370
    25
100
AcDbVertex
100
AcDb2dVertex
 10
769.2880993085461
 20
851.1862872220993
 30
0.0
  0
VERTEX
  5
41A
330
418
100
AcDbEntity
  8
Layer 1
 62
     7
370
    25
100
AcDbVertex
100
AcDb2dVertex
 10
769.2880993085461
 20
872.3527816287001
 30
0.0
  0
SEQEND
  5
41B
330
418
100
AcDbEntity
  8
Layer 1
370
    25
  0
POLYLINE
  5
41C
330
3C
100
AcDbEntity
  8
Layer 1
370
     0
100
AcDb2dPolyline
 66
     1
 10
0.0
 20
0.0
 30
0.0
  0
VERTEX
  5
41D
330
41C
100
AcDbEntity
  8
Layer 1
370
     0
100
AcDbVertex
100
AcDb2dVertex
 10
146.053617313747
 20
1184.565593508112
 30
0.0
  0
VERTEX
  5
41E
330
41C
100
AcDbEntity
  8
Layer 1
370
     0
100
AcDbVertex
100
AcDb2dVertex
 10
176.0536810540769
 20
1189.565288331081
 30
0.0
  0
VERTEX
  5
41F
330
41C
100
AcDbEntity
  8
Layer 1
370
     0
100
AcDbVertex
100
AcDb2dVertex
 10
176.0536810540769
 20
1179.565554175595
 30
0.0
  0
SEQEND
  5
420
330
41C
100
AcDbEntity
  8
Layer 1
370
     0
  0
HATCH
  5
421
330
3C
100
AcDbEntity
  8
Layer 1
 62
     7
100
AcDbHatch
 10
0.0
 20
0.0
 30
0.0
210
0.0
220
0.0
230
1.0
  2
SOLID
 70
     1
 71
     0
 91
        1
 92
        1
 93
        3
 72
     1
 10
146.053617313747
 20
1184.565593508112
 11
176.0536810540769
 21
1189.565288331081
 72
     1
 10
176.0536810540769
 20
1189.565288331081
 11
176.0536810540769
 21
1179.565554175595
 72
     1
 10
176.0536810540769
 20
1179.565554175595
 11
146.053617313747
 21
1184.565593508112
 97
        0
 75
     2
 76
     1
 98
        0
  0
POLYLINE
  5
422
330
3C
100
AcDbEntity
  8
Layer 1
370
     0
100
AcDb2dPolyline
 66
     1
 10
0.0
 20
0.0
 30
0.0
  0
VERTEX
  5
423
330
422
100
AcDbEntity
  8
Layer 1
370
     0
100
AcDbVertex
100
AcDb2dVertex
 10
646.0528996865771
 20
1184.565593508112
 30
0.0
  0
VERTEX
  5
424
330
422
100
AcDbEntity
  8
Layer 1
370
     0
100
AcDbVertex
100
AcDb2dVertex
 10
616.052663691473
 20
1179.565554175595
 30
0.0
  0
VERTEX
  5
425
330
422
100
AcDbEntity
  8
Layer 1
370
     0
100
AcDbVertex
100
AcDb2dVertex
 10
616.052663691473
 20
1189.565288331081
 30
0.0
  0
SEQEND
  5
426
330
422
100
AcDbEntity
  8
Layer 1
370
     0
  0
HATCH
  5
427
330
3C
100
AcDbEntity
  8
Layer 1
 62
     7
100
AcDbHatch
 10
0.0
 20
0.0
 30
0.0
210
0.0
220
0.0
230
1.0
  2
SOLID
 70
     1
 71
     0
 91
        1
 92
        1
 93
        3
 72
     1
 10
646.0528996865771
 20
1184.565593508112
 11
616.052663691473
 21
1179.565554175595
 72
     1
 10
616.052663691473
 20
1179.565554175595
 11
616.052663691473
 21
1189.565288331081
 72
     1
 10
616.052663691473
 20
1189.565288331081
 11
646.0528996865771
 21
1184.565593508112
 97
        0
 75
     2
 76
     1
 98
        0
  0
POLYLINE
  5
428
330
3C
100
AcDbEntity
  8
Layer 1
 62
     7
370
    25
100
AcDb2dPolyline
 66
     1
 10
0.0
 20
0.0
 30
0.0
  0
VERTEX
  5
429
330
428
100
AcDbEntity
  8
Layer 1
 62
     7
370
    25
100
AcDbVertex
100
AcDb2dVertex
 10
146.053617313747
 20
1124.434207889464
 30
0.0
  0
VERTEX
  5
42A
330
428
100
AcDbEntity
  8
Layer 1
 62
     7
370
    25
100
AcDbVertex
100
AcDb2dVertex
 10
146.053617313747
 20
1194.565499918373
 30
0.0
  0
SEQEND
  5
42B
330
428
100
AcDbEntity
  8
Layer 1
370
    25
  0
POLYLINE
  5
42C
330
3C
100
AcDbEntity
  8
Layer 1
 62
     7
370
    25
100
AcDb2dPolyline
 66
     1
 10
0.0
 20
0.0
 30
0.0
  0
VERTEX
  5
42D
330
42C
100
AcDbEntity
  8
Layer 1
 62
     7
370
    25
100
AcDbVertex
100
AcDb2dVertex
 10
646.0528996865771
 20
1124.99937580382
 30
0.0
  0
VERTEX
  5
42E
330
42C
100
AcDbEntity
  8
Layer 1
 62
     7
370
    25
100
AcDbVertex
100
AcDb2dVertex
 10
646.0528996865771
 20
1194.565499918373
 30
0.0
  0
SEQEND
  5
42F
330
42C
100
AcDbEntity
  8
Layer 1
370
    25
  0
POLYLINE
  5
430
330
3C
100
AcDbEntity
  8
Layer 1
 62
     7
370
    25
100
AcDb2dPolyline
 66
     1
 10
0.0
 20
0.0
 30
0.0
  0
VERTEX
  5
431
330
430
100
AcDbEntity
  8
Layer 1
 62
     7
370
    25
100
AcDbVertex
100
AcDb2dVertex
 10
146.053617313747
 20
1184.565593508112
 30
0.0
  0
VERTEX
  5
432
330
430
100
AcDbEntity
  8
Layer 1
 62
     7
370
    25
100
AcDbVertex
100
AcDb2dVertex
 10
646.0528996865771
 20
1184.565593508112
 30
0.0
  0
SEQEND
  5
433
330
430
100
AcDbEntity
  8
Layer 1
370
    25
  0
POLYLINE
  5
434
330
3C
100
AcDbEntity
  8
Layer 1
 62
     7
370
    25
100
AcDb2dPolyline
 66
     1
 10
0.0
 20
0.0
 30
0.0
  0
VERTEX
  5
435
330
434
100
AcDbEntity
  8
Layer 1
 62
     7
370
    25
100
AcDbVertex
100
AcDb2dVertex
 10
331.965266844092
 20
1203.858300480285
 30
0.0
  0
VERTEX
  5
436
330
434
100
AcDbEntity
  8
Layer 1
 62
     7
370
    25
100
AcDbVertex
100
AcDb2dVertex
 10
337.2569335094358
 20
1196.802400416945
 30
0.0
  0
SEQEND
  5
437
330
434
100
AcDbEntity
  8
Layer 1
370
    25
  0
POLYLINE
  5
438
330
3C
100
AcDbEntity
  8
Layer 1
 62
     7
370
    25
100
AcDb2dPolyline
 66
     1
 10
0.0
 20
0.0
 30
0.0
  0
VERTEX
  5
439
330
438
100
AcDbEntity
  8
Layer 1
 62
     7
370
    25
100
AcDbVertex
100
AcDb2dVertex
 10
337.2569335094358
 20
1196.802400416945
 30
0.0
  0
VERTEX
  5
43A
330
438
100
AcDbEntity
  8
Layer 1
 62
     7
370
    25
100
AcDbVertex
100
AcDb2dVertex
 10
347.8404390948975
 20
1196.802400416945
 30
0.0
  0
SEQEND
  5
43B
330
438
100
AcDbEntity
  8
Layer 1
370
    25
  0
POLYLINE
  5
43C
330
3C
100
AcDbEntity
  8
Layer 1
 62
     7
370
    25
100
AcDb2dPolyline
 66
     1
 10
0.0
 20
0.0
 30
0.0
  0
VERTEX
  5
43D
330
43C
100
AcDbEntity
  8
Layer 1
 62
     7
370
    25
100
AcDbVertex
100
AcDb2dVertex
 10
347.8404390948975
 20
1196.802400416945
 30
0.0
  0
VERTEX
  5
43E
330
43C
100
AcDbEntity
  8
Layer 1
 62
     7
370
    25
100
AcDbVertex
100
AcDb2dVertex
 10
353.1321057602413
 20
1203.858300480285
 30
0.0
  0
SEQEND
  5
43F
330
43C
100
AcDbEntity
  8
Layer 1
370
    25
  0
POLYLINE
  5
440
330
3C
100
AcDbEntity
  8
Layer 1
 62
     7
370
    25
100
AcDb2dPolyline
 66
     1
 10
0.0
 20
0.0
 30
0.0
  0
VERTEX
  5
441
330
440
100
AcDbEntity
  8
Layer 1
 62
     7
370
    25
100
AcDbVertex
100
AcDb2dVertex
 10
353.1321057602413
 20
1203.858300480285
 30
0.0
  0
VERTEX
  5
442
330
440
100
AcDbEntity
  8
Layer 1
 62
     7
370
    25
100
AcDbVertex
100
AcDb2dVertex
 10
353.1321057602413
 20
1217.969411587869
 30
0.0
  0
SEQEND
  5
443
330
440
100
AcDbEntity
  8
Layer 1
370
    25
  0
POLYLINE
  5
444
330
3C
100
AcDbEntity
  8
Layer 1
 62
     7
370
    25
100
AcDb2dPolyline
 66
     1
 10
0.0
 20
0.0
 30
0.0
  0
VERTEX
  5
445
330
444
100
AcDbEntity
  8
Layer 1
 62
     7
370
    25
100
AcDbVertex
100
AcDb2dVertex
 10
353.1321057602413
 20
1217.969411587869
 30
0.0
  0
VERTEX
  5
446
330
444
100
AcDbEntity
  8
Layer 1
 62
     7
370
    25
100
AcDbVertex
100
AcDb2dVertex
 10
347.8404390948975
 20
1225.024622632112
 30
0.0
  0
SEQEND
  5
447
330
444
100
AcDbEntity
  8
Layer 1
370
    25
  0
POLYLINE
  5
448
330
3C
100
AcDbEntity
  8
Layer 1
 62
     7
370
    25
100
AcDb2dPolyline
 66
     1
 10
0.0
 20
0.0
 30
0.0
  0
VERTEX
  5
449
330
448
100
AcDbEntity
  8
Layer 1
 62
     7
370
    25
100
AcDbVertex
100
AcDb2dVertex
 10
347.8404390948975
 20
1225.024622632112
 30
0.0
  0
VERTEX
  5
44A
330
448
100
AcDbEntity
  8
Layer 1
 62
     7
370
    25
100
AcDbVertex
100
AcDb2dVertex
 10
331.965266844092
 20
1225.024622632112
 30
0.0
  0
SEQEND
  5
44B
330
448
100
AcDbEntity
  8
Layer 1
370
    25
  0
POLYLINE
  5
44C
330
3C
100
AcDbEntity
  8
Layer 1
 62
     7
370
    25
100
AcDb2dPolyline
 66
     1
 10
0.0
 20
0.0
 30
0.0
  0
VERTEX
  5
44D
330
44C
100
AcDbEntity
  8
Layer 1
 62
     7
370
    25
100
AcDbVertex
100
AcDb2dVertex
 10
331.965266844092
 20
1225.024622632112
 30
0.0
  0
VERTEX
  5
44E
330
44C
100
AcDbEntity
  8
Layer 1
 62
     7
370
    25
100
AcDbVertex
100
AcDb2dVertex
 10
331.965266844092
 20
1239.13590599447
 30
0.0
  0
SEQEND
  5
44F
330
44C
100
AcDbEntity
  8
Layer 1
370
    25
  0
POLYLINE
  5
450
330
3C
100
AcDbEntity
  8
Layer 1
 62
     7
370
    25
100
AcDb2dPolyline
 66
     1
 10
0.0
 20
0.0
 30
0.0
  0
VERTEX
  5
451
330
450
100
AcDbEntity
  8
Layer 1
 62
     7
370
    25
100
AcDbVertex
100
AcDb2dVertex
 10
331.965266844092
 20
1239.13590599447
 30
0.0
  0
VERTEX
  5
452
330
450
100
AcDbEntity
  8
Layer 1
 62
     7
370
    25
100
AcDbVertex
100
AcDb2dVertex
 10
353.1321057602413
 20
1239.13590599447
 30
0.0
  0
SEQEND
  5
453
330
450
100
AcDbEntity
  8
Layer 1
370
    25
  0
POLYLINE
  5
454
330
3C
100
AcDbEntity
  8
Layer 1
 62
     7
370
    25
100
AcDb2dPolyline
 66
     1
 10
0.0
 20
0.0
 30
0.0
  0
VERTEX
  5
455
330
454
100
AcDbEntity
  8
Layer 1
 62
     7
370
    25
100
AcDbVertex
100
AcDb2dVertex
 10
369.0069335014983
 20
1196.802400416945
 30
0.0
  0
VERTEX
  5
456
330
454
100
AcDbEntity
  8
Layer 1
 62
     7
370
    25
100
AcDbVertex
100
AcDb2dVertex
 10
363.7156113457031
 20
1203.858300480285
 30
0.0
  0
SEQEND
  5
457
330
454
100
AcDbEntity
  8
Layer 1
370
    25
  0
POLYLINE
  5
458
330
3C
100
AcDbEntity
  8
Layer 1
 62
     7
370
    25
100
AcDb2dPolyline
 66
     1
 10
0.0
 20
0.0
 30
0.0
  0
VERTEX
  5
459
330
458
100
AcDbEntity
  8
Layer 1
 62
     7
370
    25
100
AcDbVertex
100
AcDb2dVertex
 10
363.7156113457031
 20
1203.858300480285
 30
0.0
  0
VERTEX
  5
45A
330
458
100
AcDbEntity
  8
Layer 1
 62
     7
370
    25
100
AcDbVertex
100
AcDb2dVertex
 10
363.7156113457031
 20
1232.080522695452
 30
0.0
  0
SEQEND
  5
45B
330
458
100
AcDbEntity
  8
Layer 1
370
    25
  0
POLYLINE
  5
45C
330
3C
100
AcDbEntity
  8
Layer 1
 62
     7
370
    25
100
AcDb2dPolyline
 66
     1
 10
0.0
 20
0.0
 30
0.0
  0
VERTEX
  5
45D
330
45C
100
AcDbEntity
  8
Layer 1
 62
     7
370
    25
100
AcDbVertex
100
AcDb2dVertex
 10
363.7156113457031
 20
1232.080522695452
 30
0.0
  0
VERTEX
  5
45E
330
45C
100
AcDbEntity
  8
Layer 1
 62
     7
370
    25
100
AcDbVertex
100
AcDb2dVertex
 10
369.0069335014983
 20
1239.13590599447
 30
0.0
  0
SEQEND
  5
45F
330
45C
100
AcDbEntity
  8
Layer 1
370
    25
  0
POLYLINE
  5
460
330
3C
100
AcDbEntity
  8
Layer 1
 62
     7
370
    25
100
AcDb2dPolyline
 66
     1
 10
0.0
 20
0.0
 30
0.0
  0
VERTEX
  5
461
330
460
100
AcDbEntity
  8
Layer 1
 62
     7
370
    25
100
AcDbVertex
100
AcDb2dVertex
 10
369.0069335014983
 20
1239.13590599447
 30
0.0
  0
VERTEX
  5
462
330
460
100
AcDbEntity
  8
Layer 1
 62
     7
370
    25
100
AcDbVertex
100
AcDb2dVertex
 10
374.298600166842
 20
1239.13590599447
 30
0.0
  0
SEQEND
  5
463
330
460
100
AcDbEntity
  8
Layer 1
370
    25
  0
POLYLINE
  5
464
330
3C
100
AcDbEntity
  8
Layer 1
 62
     7
370
    25
100
AcDb2dPolyline
 66
     1
 10
0.0
 20
0.0
 30
0.0
  0
VERTEX
  5
465
330
464
100
AcDbEntity
  8
Layer 1
 62
     7
370
    25
100
AcDbVertex
100
AcDb2dVertex
 10
374.298600166842
 20
1239.13590599447
 30
0.0
  0
VERTEX
  5
466
330
464
100
AcDbEntity
  8
Layer 1
 62
     7
370
    25
100
AcDbVertex
100
AcDb2dVertex
 10
379.5907835965086
 20
1232.080522695452
 30
0.0
  0
SEQEND
  5
467
330
464
100
AcDbEntity
  8
Layer 1
370
    25
  0
POLYLINE
  5
468
330
3C
100
AcDbEntity
  8
Layer 1
 62
     7
370
    25
100
AcDb2dPolyline
 66
     1
 10
0.0
 20
0.0
 30
0.0
  0
VERTEX
  5
469
330
468
100
AcDbEntity
  8
Layer 1
 62
     7
370
    25
100
AcDbVertex
100
AcDb2dVertex
 10
379.5907835965086
 20
1232.080522695452
 30
0.0
  0
VERTEX
  5
46A
330
468
100
AcDbEntity
  8
Layer 1
 62
     7
370
    25
100
AcDbVertex
100
AcDb2dVertex
 10
379.5907835965086
 20
1203.858300480285
 30
0.0
  0
SEQEND
  5
46B
330
468
100
AcDbEntity
  8
Layer 1
370
    25
  0
POLYLINE
  5
46C
330
3C
100
AcDbEntity
  8
Layer 1
 62
     7
370
    25
100
AcDb2dPolyline
 66
     1
 10
0.0
 20
0.0
 30
0.0
  0
VERTEX
  5
46D
330
46C
100
AcDbEntity
  8
Layer 1
 62
     7
370
    25
100
AcDbVertex
100
AcDb2dVertex
 10
379.5907835965086
 20
1203.858300480285
 30
0.0
  0
VERTEX
  5
46E
330
46C
100
AcDbEntity
  8
Layer 1
 62
     7
370
    25
100
AcDbVertex
100
AcDb2dVertex
 10
374.298600166842
 20
1196.802400416945
 30
0.0
  0
SEQEND
  5
46F
330
46C
100
AcDbEntity
  8
Layer 1
370
    25
  0
POLYLINE
  5
470
330
3C
100
AcDbEntity
  8
Layer 1
 62
     7
370
    25
100
AcDb2dPolyline
 66
     1
 10
0.0
 20
0.0
 30
0.0
  0
VERTEX
  5
471
330
470
100
AcDbEntity
  8
Layer 1
 62
     7
370
    25
100
AcDbVertex
100
AcDb2dVertex
 10
374.298600166842
 20
1196.802400416945
 30
0.0
  0
VERTEX
  5
472
330
470
100
AcDbEntity
  8
Layer 1
 62
     7
370
    25
100
AcDbVertex
100
AcDb2dVertex
 10
369.0069335014983
 20
1196.802400416945
 30
0.0
  0
SEQEND
  5
473
330
470
100
AcDbEntity
  8
Layer 1
370
    25
  0
POLYLINE
  5
474
330
3C
100
AcDbEntity
  8
Layer 1
 62
     7
370
    25
100
AcDb2dPolyline
 66
     1
 10
0.0
 20
0.0
 30
0.0
  0
VERTEX
  5
475
330
474
100
AcDbEntity
  8
Layer 1
 62
     7
370
    25
100
AcDbVertex
100
AcDb2dVertex
 10
395.4650945734428
 20
1196.802400416945
 30
0.0
  0
VERTEX
  5
476
330
474
100
AcDbEntity
  8
Layer 1
 62
     7
370
    25
100
AcDbVertex
100
AcDb2dVertex
 10
390.173427908099
 20
1203.858300480285
 30
0.0
  0
SEQEND
  5
477
330
474
100
AcDbEntity
  8
Layer 1
370
    25
  0
POLYLINE
  5
478
330
3C
100
AcDbEntity
  8
Layer 1
 62
     7
370
    25
100
AcDb2dPolyline
 66
     1
 10
0.0
 20
0.0
 30
0.0
  0
VERTEX
  5
479
330
478
100
AcDbEntity
  8
Layer 1
 62
     7
370
    25
100
AcDbVertex
100
AcDb2dVertex
 10
390.173427908099
 20
1203.858300480285
 30
0.0
  0
VERTEX
  5
47A
330
478
100
AcDbEntity
  8
Layer 1
 62
     7
370
    25
100
AcDbVertex
100
AcDb2dVertex
 10
390.173427908099
 20
1232.080522695452
 30
0.0
  0
SEQEND
  5
47B
330
478
100
AcDbEntity
  8
Layer 1
370
    25
  0
POLYLINE
  5
47C
330
3C
100
AcDbEntity
  8
Layer 1
 62
     7
370
    25
100
AcDb2dPolyline
 66
     1
 10
0.0
 20
0.0
 30
0.0
  0
VERTEX
  5
47D
330
47C
100
AcDbEntity
  8
Layer 1
 62
     7
370
    25
100
AcDbVertex
100
AcDb2dVertex
 10
390.173427908099
 20
1232.080522695452
 30
0.0
  0
VERTEX
  5
47E
330
47C
100
AcDbEntity
  8
Layer 1
 62
     7
370
    25
100
AcDbVertex
100
AcDb2dVertex
 10
395.4650945734428
 20
1239.13590599447
 30
0.0
  0
SEQEND
  5
47F
330
47C
100
AcDbEntity
  8
Layer 1
370
    25
  0
POLYLINE
  5
480
330
3C
100
AcDbEntity
  8
Layer 1
 62
     7
370
    25
100
AcDb2dPolyline
 66
     1
 10
0.0
 20
0.0
 30
0.0
  0
VERTEX
  5
481
330
480
100
AcDbEntity
  8
Layer 1
 62
     7
370
    25
100
AcDbVertex
100
AcDb2dVertex
 10
395.4650945734428
 20
1239.13590599447
 30
0.0
  0
VERTEX
  5
482
330
480
100
AcDbEntity
  8
Layer 1
 62
     7
370
    25
100
AcDbVertex
100
AcDb2dVertex
 10
400.7569334935608
 20
1239.13590599447
 30
0.0
  0
SEQEND
  5
483
330
480
100
AcDbEntity
  8
Layer 1
370
    25
  0
POLYLINE
  5
484
330
3C
100
AcDbEntity
  8
Layer 1
 62
     7
370
    25
100
AcDb2dPolyline
 66
     1
 10
0.0
 20
0.0
 30
0.0
  0
VERTEX
  5
485
330
484
100
AcDbEntity
  8
Layer 1
 62
     7
370
    25
100
AcDbVertex
100
AcDb2dVertex
 10
400.7569334935608
 20
1239.13590599447
 30
0.0
  0
VERTEX
  5
486
330
484
100
AcDbEntity
  8
Layer 1
 62
     7
370
    25
100
AcDbVertex
100
AcDb2dVertex
 10
406.0486001589045
 20
1232.080522695452
 30
0.0
  0
SEQEND
  5
487
330
484
100
AcDbEntity
  8
Layer 1
370
    25
  0
POLYLINE
  5
488
330
3C
100
AcDbEntity
  8
Layer 1
 62
     7
370
    25
100
AcDb2dPolyline
 66
     1
 10
0.0
 20
0.0
 30
0.0
  0
VERTEX
  5
489
330
488
100
AcDbEntity
  8
Layer 1
 62
     7
370
    25
100
AcDbVertex
100
AcDb2dVertex
 10
406.0486001589045
 20
1232.080522695452
 30
0.0
  0
VERTEX
  5
48A
330
488
100
AcDbEntity
  8
Layer 1
 62
     7
370
    25
100
AcDbVertex
100
AcDb2dVertex
 10
406.0486001589045
 20
1203.858300480285
 30
0.0
  0
SEQEND
  5
48B
330
488
100
AcDbEntity
  8
Layer 1
370
    25
  0
POLYLINE
  5
48C
330
3C
100
AcDbEntity
  8
Layer 1
 62
     7
370
    25
100
AcDb2dPolyline
 66
     1
 10
0.0
 20
0.0
 30
0.0
  0
VERTEX
  5
48D
330
48C
100
AcDbEntity
  8
Layer 1
 62
     7
370
    25
100
AcDbVertex
100
AcDb2dVertex
 10
406.0486001589045
 20
1203.858300480285
 30
0.0
  0
VERTEX
  5
48E
330
48C
100
AcDbEntity
  8
Layer 1
 62
     7
370
    25
100
AcDbVertex
100
AcDb2dVertex
 10
400.7569334935608
 20
1196.802400416945
 30
0.0
  0
SEQEND
  5
48F
330
48C
100
AcDbEntity
  8
Layer 1
370
    25
  0
POLYLINE
  5
490
330
3C
100
AcDbEntity
  8
Layer 1
 62
     7
370
    25
100
AcDb2dPolyline
 66
     1
 10
0.0
 20
0.0
 30
0.0
  0
VERTEX
  5
491
330
490
100
AcDbEntity
  8
Layer 1
 62
     7
370
    25
100
AcDbVertex
100
AcDb2dVertex
 10
400.7569334935608
 20
1196.802400416945
 30
0.0
  0
VERTEX
  5
492
330
490
100
AcDbEntity
  8
Layer 1
 62
     7
370
    25
100
AcDbVertex
100
AcDb2dVertex
 10
395.4650945734428
 20
1196.802400416945
 30
0.0
  0
SEQEND
  5
493
330
490
100
AcDbEntity
  8
Layer 1
370
    25
  0
POLYLINE
  5
494
330
3C
100
AcDbEntity
  8
Layer 1
370
     0
100
AcDb2dPolyline
 66
     1
 10
0.0
 20
0.0
 30
0.0
  0
VERTEX
  5
495
330
494
100
AcDbEntity
  8
Layer 1
370
     0
100
AcDbVertex
100
AcDb2dVertex
 10
671.0529240943896
 20
1184.565593508112
 30
0.0
  0
VERTEX
  5
496
330
494
100
AcDbEntity
  8
Layer 1
370
     0
100
AcDbVertex
100
AcDb2dVertex
 10
701.0531600894936
 20
1189.565288331081
 30
0.0
  0
VERTEX
  5
497
330
494
100
AcDbEntity
  8
Layer 1
370
     0
100
AcDbVertex
100
AcDb2dVertex
 10
701.0531600894936
 20
1179.565554175595
 30
0.0
  0
SEQEND
  5
498
330
494
100
AcDbEntity
  8
Layer 1
370
     0
  0
HATCH
  5
499
330
3C
100
AcDbEntity
  8
Layer 1
 62
     7
100
AcDbHatch
 10
0.0
 20
0.0
 30
0.0
210
0.0
220
0.0
230
1.0
  2
SOLID
 70
     1
 71
     0
 91
        1
 92
        1
 93
        3
 72
     1
 10
671.0529240943896
 20
1184.565593508112
 11
701.0531600894936
 21
1189.565288331081
 72
     1
 10
701.0531600894936
 20
1189.565288331081
 11
701.0531600894936
 21
1179.565554175595
 72
     1
 10
701.0531600894936
 20
1179.565554175595
 11
671.0529240943896
 21
1184.565593508112
 97
        0
 75
     2
 76
     1
 98
        0
  0
POLYLINE
  5
49A
330
3C
100
AcDbEntity
  8
Layer 1
370
     0
100
AcDb2dPolyline
 66
     1
 10
0.0
 20
0.0
 30
0.0
  0
VERTEX
  5
49B
330
49A
100
AcDbEntity
  8
Layer 1
370
     0
100
AcDbVertex
100
AcDb2dVertex
 10
646.0528996865771
 20
1184.565593508112
 30
0.0
  0
VERTEX
  5
49C
330
49A
100
AcDbEntity
  8
Layer 1
370
     0
100
AcDbVertex
100
AcDb2dVertex
 10
616.052663691473
 20
1179.565554175595
 30
0.0
  0
VERTEX
  5
49D
330
49A
100
AcDbEntity
  8
Layer 1
370
     0
100
AcDbVertex
100
AcDb2dVertex
 10
616.052663691473
 20
1189.565288331081
 30
0.0
  0
SEQEND
  5
49E
330
49A
100
AcDbEntity
  8
Layer 1
370
     0
  0
HATCH
  5
49F
330
3C
100
AcDbEntity
  8
Layer 1
 62
     7
100
AcDbHatch
 10
0.0
 20
0.0
 30
0.0
210
0.0
220
0.0
230
1.0
  2
SOLID
 70
     1
 71
     0
 91
        1
 92
        1
 93
        3
 72
     1
 10
646.0528996865771
 20
1184.565593508112
 11
616.052663691473
 21
1179.565554175595
 72
     1
 10
616.052663691473
 20
1179.565554175595
 11
616.052663691473
 21
1189.565288331081
 72
     1
 10
616.052663691473
 20
1189.565288331081
 11
646.0528996865771
 21
1184.565593508112
 97
        0
 75
     2
 76
     1
 98
        0
  0
POLYLINE
  5
4A0
330
3C
100
AcDbEntity
  8
Layer 1
 62
     7
370
    25
100
AcDb2dPolyline
 66
     1
 10
0.0
 20
0.0
 30
0.0
  0
VERTEX
  5
4A1
330
4A0
100
AcDbEntity
  8
Layer 1
 62
     7
370
    25
100
AcDbVertex
100
AcDb2dVertex
 10
671.0529240943896
 20
1130.432635893607
 30
0.0
  0
VERTEX
  5
4A2
330
4A0
100
AcDbEntity
  8
Layer 1
 62
     7
370
    25
100
AcDbVertex
100
AcDb2dVertex
 10
671.0529240943896
 20
1194.565499918373
 30
0.0
  0
SEQEND
  5
4A3
330
4A0
100
AcDbEntity
  8
Layer 1
370
    25
  0
POLYLINE
  5
4A4
330
3C
100
AcDbEntity
  8
Layer 1
 62
     7
370
    25
100
AcDb2dPolyline
 66
     1
 10
0.0
 20
0.0
 30
0.0
  0
VERTEX
  5
4A5
330
4A4
100
AcDbEntity
  8
Layer 1
 62
     7
370
    25
100
AcDbVertex
100
AcDb2dVertex
 10
646.0528996865771
 20
1131.422584081294
 30
0.0
  0
VERTEX
  5
4A6
330
4A4
100
AcDbEntity
  8
Layer 1
 62
     7
370
    25
100
AcDbVertex
100
AcDb2dVertex
 10
646.0528996865771
 20
1194.565499918373
 30
0.0
  0
SEQEND
  5
4A7
330
4A4
100
AcDbEntity
  8
Layer 1
370
    25
  0
POLYLINE
  5
4A8
330
3C
100
AcDbEntity
  8
Layer 1
 62
     7
370
    25
100
AcDb2dPolyline
 66
     1
 10
0.0
 20
0.0
 30
0.0
  0
VERTEX
  5
4A9
330
4A8
100
AcDbEntity
  8
Layer 1
 62
     7
370
    25
100
AcDbVertex
100
AcDb2dVertex
 10
671.0529240943896
 20
1184.565593508112
 30
0.0
  0
VERTEX
  5
4AA
330
4A8
100
AcDbEntity
  8
Layer 1
 62
     7
370
    25
100
AcDbVertex
100
AcDb2dVertex
 10
795.8556421621472
 20
1184.565593508112
 30
0.0
  0
SEQEND
  5
4AB
330
4A8
100
AcDbEntity
  8
Layer 1
370
    25
  0
POLYLINE
  5
4AC
330
3C
100
AcDbEntity
  8
Layer 1
 62
     7
370
    25
100
AcDb2dPolyline
 66
     1
 10
0.0
 20
0.0
 30
0.0
  0
VERTEX
  5
4AD
330
4AC
100
AcDbEntity
  8
Layer 1
 62
     7
370
    25
100
AcDbVertex
100
AcDb2dVertex
 10
671.0529240943896
 20
1184.565593508112
 30
0.0
  0
VERTEX
  5
4AE
330
4AC
100
AcDbEntity
  8
Layer 1
 62
     7
370
    25
100
AcDbVertex
100
AcDb2dVertex
 10
646.0528996865771
 20
1184.565593508112
 30
0.0
  0
SEQEND
  5
4AF
330
4AC
100
AcDbEntity
  8
Layer 1
370
    25
  0
POLYLINE
  5
4B0
330
3C
100
AcDbEntity
  8
Layer 1
 62
     7
370
    25
100
AcDb2dPolyline
 66
     1
 10
0.0
 20
0.0
 30
0.0
  0
VERTEX
  5
4B1
330
4B0
100
AcDbEntity
  8
Layer 1
 62
     7
370
    25
100
AcDbVertex
100
AcDb2dVertex
 10
646.0528996865771
 20
1184.565593508112
 30
0.0
  0
VERTEX
  5
4B2
330
4B0
100
AcDbEntity
  8
Layer 1
 62
     7
370
    25
100
AcDbVertex
100
AcDb2dVertex
 10
586.0527722059173
 20
1184.565593508112
 30
0.0
  0
SEQEND
  5
4B3
330
4B0
100
AcDbEntity
  8
Layer 1
370
    25
  0
POLYLINE
  5
4B4
330
3C
100
AcDbEntity
  8
Layer 1
 62
     7
370
    25
100
AcDb2dPolyline
 66
     1
 10
0.0
 20
0.0
 30
0.0
  0
VERTEX
  5
4B5
330
4B4
100
AcDbEntity
  8
Layer 1
 62
     7
370
    25
100
AcDbVertex
100
AcDb2dVertex
 10
698.9599200726559
 20
1232.080522695452
 30
0.0
  0
VERTEX
  5
4B6
330
4B4
100
AcDbEntity
  8
Layer 1
 62
     7
370
    25
100
AcDbVertex
100
AcDb2dVertex
 10
704.2515867379997
 20
1239.13590599447
 30
0.0
  0
SEQEND
  5
4B7
330
4B4
100
AcDbEntity
  8
Layer 1
370
    25
  0
POLYLINE
  5
4B8
330
3C
100
AcDbEntity
  8
Layer 1
 62
     7
370
    25
100
AcDb2dPolyline
 66
     1
 10
0.0
 20
0.0
 30
0.0
  0
VERTEX
  5
4B9
330
4B8
100
AcDbEntity
  8
Layer 1
 62
     7
370
    25
100
AcDbVertex
100
AcDb2dVertex
 10
704.2515867379997
 20
1239.13590599447
 30
0.0
  0
VERTEX
  5
4BA
330
4B8
100
AcDbEntity
  8
Layer 1
 62
     7
370
    25
100
AcDbVertex
100
AcDb2dVertex
 10
714.8352645782356
 20
1239.13590599447
 30
0.0
  0
SEQEND
  5
4BB
330
4B8
100
AcDbEntity
  8
Layer 1
370
    25
  0
POLYLINE
  5
4BC
330
3C
100
AcDbEntity
  8
Layer 1
 62
     7
370
    25
100
AcDb2dPolyline
 66
     1
 10
0.0
 20
0.0
 30
0.0
  0
VERTEX
  5
4BD
330
4BC
100
AcDbEntity
  8
Layer 1
 62
     7
370
    25
100
AcDbVertex
100
AcDb2dVertex
 10
714.8352645782356
 20
1239.13590599447
 30
0.0
  0
VERTEX
  5
4BE
330
4BC
100
AcDbEntity
  8
Layer 1
 62
     7
370
    25
100
AcDbVertex
100
AcDb2dVertex
 10
720.1269312435794
 20
1232.080522695452
 30
0.0
  0
SEQEND
  5
4BF
330
4BC
100
AcDbEntity
  8
Layer 1
370
    25
  0
POLYLINE
  5
4C0
330
3C
100
AcDbEntity
  8
Layer 1
 62
     7
370
    25
100
AcDb2dPolyline
 66
     1
 10
0.0
 20
0.0
 30
0.0
  0
VERTEX
  5
4C1
330
4C0
100
AcDbEntity
  8
Layer 1
 62
     7
370
    25
100
AcDbVertex
100
AcDb2dVertex
 10
720.1269312435794
 20
1232.080522695452
 30
0.0
  0
VERTEX
  5
4C2
330
4C0
100
AcDbEntity
  8
Layer 1
 62
     7
370
    25
100
AcDbVertex
100
AcDb2dVertex
 10
720.1269312435794
 20
1225.024622632112
 30
0.0
  0
SEQEND
  5
4C3
330
4C0
100
AcDbEntity
  8
Layer 1
370
    25
  0
POLYLINE
  5
4C4
330
3C
100
AcDbEntity
  8
Layer 1
 62
     7
370
    25
100
AcDb2dPolyline
 66
     1
 10
0.0
 20
0.0
 30
0.0
  0
VERTEX
  5
4C5
330
4C4
100
AcDbEntity
  8
Layer 1
 62
     7
370
    25
100
AcDbVertex
100
AcDb2dVertex
 10
720.1269312435794
 20
1225.024622632112
 30
0.0
  0
VERTEX
  5
4C6
330
4C4
100
AcDbEntity
  8
Layer 1
 62
     7
370
    25
100
AcDbVertex
100
AcDb2dVertex
 10
714.8352645782356
 20
1217.969411587869
 30
0.0
  0
SEQEND
  5
4C7
330
4C4
100
AcDbEntity
  8
Layer 1
370
    25
  0
POLYLINE
  5
4C8
330
3C
100
AcDbEntity
  8
Layer 1
 62
     7
370
    25
100
AcDb2dPolyline
 66
     1
 10
0.0
 20
0.0
 30
0.0
  0
VERTEX
  5
4C9
330
4C8
100
AcDbEntity
  8
Layer 1
 62
     7
370
    25
100
AcDbVertex
100
AcDb2dVertex
 10
714.8352645782356
 20
1217.969411587869
 30
0.0
  0
VERTEX
  5
4CA
330
4C8
100
AcDbEntity
  8
Layer 1
 62
     7
370
    25
100
AcDbVertex
100
AcDb2dVertex
 10
704.2515867379997
 20
1217.969411587869
 30
0.0
  0
SEQEND
  5
4CB
330
4C8
100
AcDbEntity
  8
Layer 1
370
    25
  0
POLYLINE
  5
4CC
330
3C
100
AcDbEntity
  8
Layer 1
 62
     7
370
    25
100
AcDb2dPolyline
 66
     1
 10
0.0
 20
0.0
 30
0.0
  0
VERTEX
  5
4CD
330
4CC
100
AcDbEntity
  8
Layer 1
 62
     7
370
    25
100
AcDbVertex
100
AcDb2dVertex
 10
704.2515867379997
 20
1217.969411587869
 30
0.0
  0
VERTEX
  5
4CE
330
4CC
100
AcDbEntity
  8
Layer 1
 62
     7
370
    25
100
AcDbVertex
100
AcDb2dVertex
 10
698.9599200726559
 20
1210.914028288851
 30
0.0
  0
SEQEND
  5
4CF
330
4CC
100
AcDbEntity
  8
Layer 1
370
    25
  0
POLYLINE
  5
4D0
330
3C
100
AcDbEntity
  8
Layer 1
 62
     7
370
    25
100
AcDb2dPolyline
 66
     1
 10
0.0
 20
0.0
 30
0.0
  0
VERTEX
  5
4D1
330
4D0
100
AcDbEntity
  8
Layer 1
 62
     7
370
    25
100
AcDbVertex
100
AcDb2dVertex
 10
698.9599200726559
 20
1210.914028288851
 30
0.0
  0
VERTEX
  5
4D2
330
4D0
100
AcDbEntity
  8
Layer 1
 62
     7
370
    25
100
AcDbVertex
100
AcDb2dVertex
 10
698.9599200726559
 20
1196.802400416945
 30
0.0
  0
SEQEND
  5
4D3
330
4D0
100
AcDbEntity
  8
Layer 1
370
    25
  0
POLYLINE
  5
4D4
330
3C
100
AcDbEntity
  8
Layer 1
 62
     7
370
    25
100
AcDb2dPolyline
 66
     1
 10
0.0
 20
0.0
 30
0.0
  0
VERTEX
  5
4D5
330
4D4
100
AcDbEntity
  8
Layer 1
 62
     7
370
    25
100
AcDbVertex
100
AcDb2dVertex
 10
698.9599200726559
 20
1196.802400416945
 30
0.0
  0
VERTEX
  5
4D6
330
4D4
100
AcDbEntity
  8
Layer 1
 62
     7
370
    25
100
AcDbVertex
100
AcDb2dVertex
 10
720.1269312435794
 20
1196.802400416945
 30
0.0
  0
SEQEND
  5
4D7
330
4D4
100
AcDbEntity
  8
Layer 1
370
    25
  0
POLYLINE
  5
4D8
330
3C
100
AcDbEntity
  8
Layer 1
 62
     7
370
    25
100
AcDb2dPolyline
 66
     1
 10
0.0
 20
0.0
 30
0.0
  0
VERTEX
  5
4D9
330
4D8
100
AcDbEntity
  8
Layer 1
 62
     7
370
    25
100
AcDbVertex
100
AcDb2dVertex
 10
730.7095755551699
 20
1203.858300480285
 30
0.0
  0
VERTEX
  5
4DA
330
4D8
100
AcDbEntity
  8
Layer 1
 62
     7
370
    25
100
AcDbVertex
100
AcDb2dVertex
 10
736.0019312396107
 20
1196.802400416945
 30
0.0
  0
SEQEND
  5
4DB
330
4D8
100
AcDbEntity
  8
Layer 1
370
    25
  0
POLYLINE
  5
4DC
330
3C
100
AcDbEntity
  8
Layer 1
 62
     7
370
    25
100
AcDb2dPolyline
 66
     1
 10
0.0
 20
0.0
 30
0.0
  0
VERTEX
  5
4DD
330
4DC
100
AcDbEntity
  8
Layer 1
 62
     7
370
    25
100
AcDbVertex
100
AcDb2dVertex
 10
736.0019312396107
 20
1196.802400416945
 30
0.0
  0
VERTEX
  5
4DE
330
4DC
100
AcDbEntity
  8
Layer 1
 62
     7
370
    25
100
AcDbVertex
100
AcDb2dVertex
 10
746.5845755512012
 20
1196.802400416945
 30
0.0
  0
SEQEND
  5
4DF
330
4DC
100
AcDbEntity
  8
Layer 1
370
    25
  0
POLYLINE
  5
4E0
330
3C
100
AcDbEntity
  8
Layer 1
 62
     7
370
    25
100
AcDb2dPolyline
 66
     1
 10
0.0
 20
0.0
 30
0.0
  0
VERTEX
  5
4E1
330
4E0
100
AcDbEntity
  8
Layer 1
 62
     7
370
    25
100
AcDbVertex
100
AcDb2dVertex
 10
746.5845755512012
 20
1196.802400416945
 30
0.0
  0
VERTEX
  5
4E2
330
4E0
100
AcDbEntity
  8
Layer 1
 62
     7
370
    25
100
AcDbVertex
100
AcDb2dVertex
 10
751.8765867260934
 20
1203.858300480285
 30
0.0
  0
SEQEND
  5
4E3
330
4E0
100
AcDbEntity
  8
Layer 1
370
    25
  0
POLYLINE
  5
4E4
330
3C
100
AcDbEntity
  8
Layer 1
 62
     7
370
    25
100
AcDb2dPolyline
 66
     1
 10
0.0
 20
0.0
 30
0.0
  0
VERTEX
  5
4E5
330
4E4
100
AcDbEntity
  8
Layer 1
 62
     7
370
    25
100
AcDbVertex
100
AcDb2dVertex
 10
751.8765867260934
 20
1203.858300480285
 30
0.0
  0
VERTEX
  5
4E6
330
4E4
100
AcDbEntity
  8
Layer 1
 62
     7
370
    25
100
AcDbVertex
100
AcDb2dVertex
 10
751.8765867260934
 20
1217.969411587869
 30
0.0
  0
SEQEND
  5
4E7
330
4E4
100
AcDbEntity
  8
Layer 1
370
    25
  0
POLYLINE
  5
4E8
330
3C
100
AcDbEntity
  8
Layer 1
 62
     7
370
    25
100
AcDb2dPolyline
 66
     1
 10
0.0
 20
0.0
 30
0.0
  0
VERTEX
  5
4E9
330
4E8
100
AcDbEntity
  8
Layer 1
 62
     7
370
    25
100
AcDbVertex
100
AcDb2dVertex
 10
751.8765867260934
 20
1217.969411587869
 30
0.0
  0
VERTEX
  5
4EA
330
4E8
100
AcDbEntity
  8
Layer 1
 62
     7
370
    25
100
AcDbVertex
100
AcDb2dVertex
 10
746.5845755512012
 20
1225.024622632112
 30
0.0
  0
SEQEND
  5
4EB
330
4E8
100
AcDbEntity
  8
Layer 1
370
    25
  0
POLYLINE
  5
4EC
330
3C
100
AcDbEntity
  8
Layer 1
 62
     7
370
    25
100
AcDb2dPolyline
 66
     1
 10
0.0
 20
0.0
 30
0.0
  0
VERTEX
  5
4ED
330
4EC
100
AcDbEntity
  8
Layer 1
 62
     7
370
    25
100
AcDbVertex
100
AcDb2dVertex
 10
746.5845755512012
 20
1225.024622632112
 30
0.0
  0
VERTEX
  5
4EE
330
4EC
100
AcDbEntity
  8
Layer 1
 62
     7
370
    25
100
AcDbVertex
100
AcDb2dVertex
 10
730.7095755551699
 20
1225.024622632112
 30
0.0
  0
SEQEND
  5
4EF
330
4EC
100
AcDbEntity
  8
Layer 1
370
    25
  0
POLYLINE
  5
4F0
330
3C
100
AcDbEntity
  8
Layer 1
 62
     7
370
    25
100
AcDb2dPolyline
 66
     1
 10
0.0
 20
0.0
 30
0.0
  0
VERTEX
  5
4F1
330
4F0
100
AcDbEntity
  8
Layer 1
 62
     7
370
    25
100
AcDbVertex
100
AcDb2dVertex
 10
730.7095755551699
 20
1225.024622632112
 30
0.0
  0
VERTEX
  5
4F2
330
4F0
100
AcDbEntity
  8
Layer 1
 62
     7
370
    25
100
AcDbVertex
100
AcDb2dVertex
 10
730.7095755551699
 20
1239.13590599447
 30
0.0
  0
SEQEND
  5
4F3
330
4F0
100
AcDbEntity
  8
Layer 1
370
    25
  0
POLYLINE
  5
4F4
330
3C
100
AcDbEntity
  8
Layer 1
 62
     7
370
    25
100
AcDb2dPolyline
 66
     1
 10
0.0
 20
0.0
 30
0.0
  0
VERTEX
  5
4F5
330
4F4
100
AcDbEntity
  8
Layer 1
 62
     7
370
    25
100
AcDbVertex
100
AcDb2dVertex
 10
730.7095755551699
 20
1239.13590599447
 30
0.0
  0
VERTEX
  5
4F6
330
4F4
100
AcDbEntity
  8
Layer 1
 62
     7
370
    25
100
AcDbVertex
100
AcDb2dVertex
 10
751.8765867260934
 20
1239.13590599447
 30
0.0
  0
SEQEND
  5
4F7
330
4F4
100
AcDbEntity
  8
Layer 1
370
    25
  0
POLYLINE
  5
4F8
330
3C
100
AcDbEntity
  8
Layer 1
370
     0
100
AcDb2dPolyline
 66
     1
 10
0.0
 20
0.0
 30
0.0
  0
VERTEX
  5
4F9
330
4F8
100
AcDbEntity
  8
Layer 1
370
     0
100
AcDbVertex
100
AcDb2dVertex
 10
146.053617313747
 20
1184.565593508112
 30
0.0
  0
VERTEX
  5
4FA
330
4F8
100
AcDbEntity
  8
Layer 1
370
     0
100
AcDbVertex
100
AcDb2dVertex
 10
176.0536810540769
 20
1189.565288331081
 30
0.0
  0
VERTEX
  5
4FB
330
4F8
100
AcDbEntity
  8
Layer 1
370
     0
100
AcDbVertex
100
AcDb2dVertex
 10
176.0536810540769
 20
1179.565554175595
 30
0.0
  0
SEQEND
  5
4FC
330
4F8
100
AcDbEntity
  8
Layer 1
370
     0
  0
HATCH
  5
4FD
330
3C
100
AcDbEntity
  8
Layer 1
 62
     7
100
AcDbHatch
 10
0.0
 20
0.0
 30
0.0
210
0.0
220
0.0
230
1.0
  2
SOLID
 70
     1
 71
     0
 91
        1
 92
        1
 93
        3
 72
     1
 10
146.053617313747
 20
1184.565593508112
 11
176.0536810540769
 21
1189.565288331081
 72
     1
 10
176.0536810540769
 20
1189.565288331081
 11
176.0536810540769
 21
1179.565554175595
 72
     1
 10
176.0536810540769
 20
1179.565554175595
 11
146.053617313747
 21
1184.565593508112
 97
        0
 75
     2
 76
     1
 98
        0
  0
POLYLINE
  5
4FE
330
3C
100
AcDbEntity
  8
Layer 1
370
     0
100
AcDb2dPolyline
 66
     1
 10
0.0
 20
0.0
 30
0.0
  0
VERTEX
  5
4FF
330
4FE
100
AcDbEntity
  8
Layer 1
370
     0
100
AcDbVertex
100
AcDb2dVertex
 10
121.0534206511603
 20
1184.565593508112
 30
0.0
  0
VERTEX
  5
500
330
4FE
100
AcDbEntity
  8
Layer 1
370
     0
100
AcDbVertex
100
AcDb2dVertex
 10
91.05370142037894
 20
1179.565554175595
 30
0.0
  0
VERTEX
  5
501
330
4FE
100
AcDbEntity
  8
Layer 1
370
     0
100
AcDbVertex
100
AcDb2dVertex
 10
91.05370142037894
 20
1189.565288331081
 30
0.0
  0
SEQEND
  5
502
330
4FE
100
AcDbEntity
  8
Layer 1
370
     0
  0
HATCH
  5
503
330
3C
100
AcDbEntity
  8
Layer 1
 62
     7
100
AcDbHatch
 10
0.0
 20
0.0
 30
0.0
210
0.0
220
0.0
230
1.0
  2
SOLID
 70
     1
 71
     0
 91
        1
 92
        1
 93
        3
 72
     1
 10
121.0534206511603
 20
1184.565593508112
 11
91.05370142037894
 21
1179.565554175595
 72
     1
 10
91.05370142037894
 20
1179.565554175595
 11
91.05370142037894
 21
1189.565288331081
 72
     1
 10
91.05370142037894
 20
1189.565288331081
 11
121.0534206511603
 21
1184.565593508112
 97
        0
 75
     2
 76
     1
 98
        0
  0
POLYLINE
  5
504
330
3C
100
AcDbEntity
  8
Layer 1
 62
     7
370
    25
100
AcDb2dPolyline
 66
     1
 10
0.0
 20
0.0
 30
0.0
  0
VERTEX
  5
505
330
504
100
AcDbEntity
  8
Layer 1
 62
     7
370
    25
100
AcDbVertex
100
AcDb2dVertex
 10
146.053617313747
 20
1133.896679404026
 30
0.0
  0
VERTEX
  5
506
330
504
100
AcDbEntity
  8
Layer 1
 62
     7
370
    25
100
AcDbVertex
100
AcDb2dVertex
 10
146.053617313747
 20
1194.565499918373
 30
0.0
  0
SEQEND
  5
507
330
504
100
AcDbEntity
  8
Layer 1
370
    25
  0
POLYLINE
  5
508
330
3C
100
AcDbEntity
  8
Layer 1
 62
     7
370
    25
100
AcDb2dPolyline
 66
     1
 10
0.0
 20
0.0
 30
0.0
  0
VERTEX
  5
509
330
508
100
AcDbEntity
  8
Layer 1
 62
     7
370
    25
100
AcDbVertex
100
AcDb2dVertex
 10
121.0534206511603
 20
1135.381515558169
 30
0.0
  0
VERTEX
  5
50A
330
508
100
AcDbEntity
  8
Layer 1
 62
     7
370
    25
100
AcDbVertex
100
AcDb2dVertex
 10
121.0534206511603
 20
1194.565499918373
 30
0.0
  0
SEQEND
  5
50B
330
508
100
AcDbEntity
  8
Layer 1
370
    25
  0
POLYLINE
  5
50C
330
3C
100
AcDbEntity
  8
Layer 1
 62
     7
370
    25
100
AcDb2dPolyline
 66
     1
 10
0.0
 20
0.0
 30
0.0
  0
VERTEX
  5
50D
330
50C
100
AcDbEntity
  8
Layer 1
 62
     7
370
    25
100
AcDbVertex
100
AcDb2dVertex
 10
146.053617313747
 20
1184.565593508112
 30
0.0
  0
VERTEX
  5
50E
330
50C
100
AcDbEntity
  8
Layer 1
 62
     7
370
    25
100
AcDbVertex
100
AcDb2dVertex
 10
206.0537447944067
 20
1184.565593508112
 30
0.0
  0
SEQEND
  5
50F
330
50C
100
AcDbEntity
  8
Layer 1
370
    25
  0
POLYLINE
  5
510
330
3C
100
AcDbEntity
  8
Layer 1
 62
     7
370
    25
100
AcDb2dPolyline
 66
     1
 10
0.0
 20
0.0
 30
0.0
  0
VERTEX
  5
511
330
510
100
AcDbEntity
  8
Layer 1
 62
     7
370
    25
100
AcDbVertex
100
AcDb2dVertex
 10
146.053617313747
 20
1184.565593508112
 30
0.0
  0
VERTEX
  5
512
330
510
100
AcDbEntity
  8
Layer 1
 62
     7
370
    25
100
AcDbVertex
100
AcDb2dVertex
 10
121.0534206511603
 20
1184.565593508112
 30
0.0
  0
SEQEND
  5
513
330
510
100
AcDbEntity
  8
Layer 1
370
    25
  0
POLYLINE
  5
514
330
3C
100
AcDbEntity
  8
Layer 1
 62
     7
370
    25
100
AcDb2dPolyline
 66
     1
 10
0.0
 20
0.0
 30
0.0
  0
VERTEX
  5
515
330
514
100
AcDbEntity
  8
Layer 1
 62
     7
370
    25
100
AcDbVertex
100
AcDb2dVertex
 10
121.0534206511603
 20
1184.565593508112
 30
0.0
  0
VERTEX
  5
516
330
514
100
AcDbEntity
  8
Layer 1
 62
     7
370
    25
100
AcDbVertex
100
AcDb2dVertex
 10
0.0337619357554484
 20
1184.565593508112
 30
0.0
  0
SEQEND
  5
517
330
514
100
AcDbEntity
  8
Layer 1
370
    25
  0
POLYLINE
  5
518
330
3C
100
AcDbEntity
  8
Layer 1
 62
     7
370
    25
100
AcDb2dPolyline
 66
     1
 10
0.0
 20
0.0
 30
0.0
  0
VERTEX
  5
519
330
518
100
AcDbEntity
  8
Layer 1
 62
     7
370
    25
100
AcDbVertex
100
AcDb2dVertex
 10
0.0337619357554484
 20
1232.080522695452
 30
0.0
  0
VERTEX
  5
51A
330
518
100
AcDbEntity
  8
Layer 1
 62
     7
370
    25
100
AcDbVertex
100
AcDb2dVertex
 10
5.325084091550674
 20
1239.13590599447
 30
0.0
  0
SEQEND
  5
51B
330
518
100
AcDbEntity
  8
Layer 1
370
    25
  0
POLYLINE
  5
51C
330
3C
100
AcDbEntity
  8
Layer 1
 62
     7
370
    25
100
AcDb2dPolyline
 66
     1
 10
0.0
 20
0.0
 30
0.0
  0
VERTEX
  5
51D
330
51C
100
AcDbEntity
  8
Layer 1
 62
     7
370
    25
100
AcDbVertex
100
AcDb2dVertex
 10
5.325084091550674
 20
1239.13590599447
 30
0.0
  0
VERTEX
  5
51E
330
51C
100
AcDbEntity
  8
Layer 1
 62
     7
370
    25
100
AcDbVertex
100
AcDb2dVertex
 10
15.90858967701244
 20
1239.13590599447
 30
0.0
  0
SEQEND
  5
51F
330
51C
100
AcDbEntity
  8
Layer 1
370
    25
  0
POLYLINE
  5
520
330
3C
100
AcDbEntity
  8
Layer 1
 62
     7
370
    25
100
AcDb2dPolyline
 66
     1
 10
0.0
 20
0.0
 30
0.0
  0
VERTEX
  5
521
330
520
100
AcDbEntity
  8
Layer 1
 62
     7
370
    25
100
AcDbVertex
100
AcDb2dVertex
 10
15.90858967701244
 20
1239.13590599447
 30
0.0
  0
VERTEX
  5
522
330
520
100
AcDbEntity
  8
Layer 1
 62
     7
370
    25
100
AcDbVertex
100
AcDb2dVertex
 10
21.20025634235619
 20
1232.080522695452
 30
0.0
  0
SEQEND
  5
523
330
520
100
AcDbEntity
  8
Layer 1
370
    25
  0
POLYLINE
  5
524
330
3C
100
AcDbEntity
  8
Layer 1
 62
     7
370
    25
100
AcDb2dPolyline
 66
     1
 10
0.0
 20
0.0
 30
0.0
  0
VERTEX
  5
525
330
524
100
AcDbEntity
  8
Layer 1
 62
     7
370
    25
100
AcDbVertex
100
AcDb2dVertex
 10
21.20025634235619
 20
1232.080522695452
 30
0.0
  0
VERTEX
  5
526
330
524
100
AcDbEntity
  8
Layer 1
 62
     7
370
    25
100
AcDbVertex
100
AcDb2dVertex
 10
21.20025634235619
 20
1225.024622632112
 30
0.0
  0
SEQEND
  5
527
330
524
100
AcDbEntity
  8
Layer 1
370
    25
  0
POLYLINE
  5
528
330
3C
100
AcDbEntity
  8
Layer 1
 62
     7
370
    25
100
AcDb2dPolyline
 66
     1
 10
0.0
 20
0.0
 30
0.0
  0
VERTEX
  5
529
330
528
100
AcDbEntity
  8
Layer 1
 62
     7
370
    25
100
AcDbVertex
100
AcDb2dVertex
 10
21.20025634235619
 20
1225.024622632112
 30
0.0
  0
VERTEX
  5
52A
330
528
100
AcDbEntity
  8
Layer 1
 62
     7
370
    25
100
AcDbVertex
100
AcDb2dVertex
 10
15.90858967701244
 20
1217.969411587869
 30
0.0
  0
SEQEND
  5
52B
330
528
100
AcDbEntity
  8
Layer 1
370
    25
  0
POLYLINE
  5
52C
330
3C
100
AcDbEntity
  8
Layer 1
 62
     7
370
    25
100
AcDb2dPolyline
 66
     1
 10
0.0
 20
0.0
 30
0.0
  0
VERTEX
  5
52D
330
52C
100
AcDbEntity
  8
Layer 1
 62
     7
370
    25
100
AcDbVertex
100
AcDb2dVertex
 10
15.90858967701244
 20
1217.969411587869
 30
0.0
  0
VERTEX
  5
52E
330
52C
100
AcDbEntity
  8
Layer 1
 62
     7
370
    25
100
AcDbVertex
100
AcDb2dVertex
 10
5.325084091550674
 20
1217.969411587869
 30
0.0
  0
SEQEND
  5
52F
330
52C
100
AcDbEntity
  8
Layer 1
370
    25
  0
POLYLINE
  5
530
330
3C
100
AcDbEntity
  8
Layer 1
 62
     7
370
    25
100
AcDb2dPolyline
 66
     1
 10
0.0
 20
0.0
 30
0.0
  0
VERTEX
  5
531
330
530
100
AcDbEntity
  8
Layer 1
 62
     7
370
    25
100
AcDbVertex
100
AcDb2dVertex
 10
5.325084091550674
 20
1217.969411587869
 30
0.0
  0
VERTEX
  5
532
330
530
100
AcDbEntity
  8
Layer 1
 62
     7
370
    25
100
AcDbVertex
100
AcDb2dVertex
 10
0.0337619357554484
 20
1210.914028288851
 30
0.0
  0
SEQEND
  5
533
330
530
100
AcDbEntity
  8
Layer 1
370
    25
  0
POLYLINE
  5
534
330
3C
100
AcDbEntity
  8
Layer 1
 62
     7
370
    25
100
AcDb2dPolyline
 66
     1
 10
0.0
 20
0.0
 30
0.0
  0
VERTEX
  5
535
330
534
100
AcDbEntity
  8
Layer 1
 62
     7
370
    25
100
AcDbVertex
100
AcDb2dVertex
 10
0.0337619357554484
 20
1210.914028288851
 30
0.0
  0
VERTEX
  5
536
330
534
100
AcDbEntity
  8
Layer 1
 62
     7
370
    25
100
AcDbVertex
100
AcDb2dVertex
 10
0.0337619357554484
 20
1196.802400416945
 30
0.0
  0
SEQEND
  5
537
330
534
100
AcDbEntity
  8
Layer 1
370
    25
  0
POLYLINE
  5
538
330
3C
100
AcDbEntity
  8
Layer 1
 62
     7
370
    25
100
AcDb2dPolyline
 66
     1
 10
0.0
 20
0.0
 30
0.0
  0
VERTEX
  5
539
330
538
100
AcDbEntity
  8
Layer 1
 62
     7
370
    25
100
AcDbVertex
100
AcDb2dVertex
 10
0.0337619357554484
 20
1196.802400416945
 30
0.0
  0
VERTEX
  5
53A
330
538
100
AcDbEntity
  8
Layer 1
 62
     7
370
    25
100
AcDbVertex
100
AcDb2dVertex
 10
21.20025634235619
 20
1196.802400416945
 30
0.0
  0
SEQEND
  5
53B
330
538
100
AcDbEntity
  8
Layer 1
370
    25
  0
POLYLINE
  5
53C
330
3C
100
AcDbEntity
  8
Layer 1
 62
     7
370
    25
100
AcDb2dPolyline
 66
     1
 10
0.0
 20
0.0
 30
0.0
  0
VERTEX
  5
53D
330
53C
100
AcDbEntity
  8
Layer 1
 62
     7
370
    25
100
AcDbVertex
100
AcDb2dVertex
 10
31.78376192781795
 20
1203.858300480285
 30
0.0
  0
VERTEX
  5
53E
330
53C
100
AcDbEntity
  8
Layer 1
 62
     7
370
    25
100
AcDbVertex
100
AcDb2dVertex
 10
37.0754285931617
 20
1196.802400416945
 30
0.0
  0
SEQEND
  5
53F
330
53C
100
AcDbEntity
  8
Layer 1
370
    25
  0
POLYLINE
  5
540
330
3C
100
AcDbEntity
  8
Layer 1
 62
     7
370
    25
100
AcDb2dPolyline
 66
     1
 10
0.0
 20
0.0
 30
0.0
  0
VERTEX
  5
541
330
540
100
AcDbEntity
  8
Layer 1
 62
     7
370
    25
100
AcDbVertex
100
AcDb2dVertex
 10
37.0754285931617
 20
1196.802400416945
 30
0.0
  0
VERTEX
  5
542
330
540
100
AcDbEntity
  8
Layer 1
 62
     7
370
    25
100
AcDbVertex
100
AcDb2dVertex
 10
47.65841741430068
 20
1196.802400416945
 30
0.0
  0
SEQEND
  5
543
330
540
100
AcDbEntity
  8
Layer 1
370
    25
  0
POLYLINE
  5
544
330
3C
100
AcDbEntity
  8
Layer 1
 62
     7
370
    25
100
AcDb2dPolyline
 66
     1
 10
0.0
 20
0.0
 30
0.0
  0
VERTEX
  5
545
330
544
100
AcDbEntity
  8
Layer 1
 62
     7
370
    25
100
AcDbVertex
100
AcDb2dVertex
 10
47.65841741430068
 20
1196.802400416945
 30
0.0
  0
VERTEX
  5
546
330
544
100
AcDbEntity
  8
Layer 1
 62
     7
370
    25
100
AcDbVertex
100
AcDb2dVertex
 10
52.95025633441869
 20
1203.858300480285
 30
0.0
  0
SEQEND
  5
547
330
544
100
AcDbEntity
  8
Layer 1
370
    25
  0
POLYLINE
  5
548
330
3C
100
AcDbEntity
  8
Layer 1
 62
     7
370
    25
100
AcDb2dPolyline
 66
     1
 10
0.0
 20
0.0
 30
0.0
  0
VERTEX
  5
549
330
548
100
AcDbEntity
  8
Layer 1
 62
     7
370
    25
100
AcDbVertex
100
AcDb2dVertex
 10
52.95025633441869
 20
1203.858300480285
 30
0.0
  0
VERTEX
  5
54A
330
548
100
AcDbEntity
  8
Layer 1
 62
     7
370
    25
100
AcDbVertex
100
AcDb2dVertex
 10
52.95025633441869
 20
1217.969411587869
 30
0.0
  0
SEQEND
  5
54B
330
548
100
AcDbEntity
  8
Layer 1
370
    25
  0
POLYLINE
  5
54C
330
3C
100
AcDbEntity
  8
Layer 1
 62
     7
370
    25
100
AcDb2dPolyline
 66
     1
 10
0.0
 20
0.0
 30
0.0
  0
VERTEX
  5
54D
330
54C
100
AcDbEntity
  8
Layer 1
 62
     7
370
    25
100
AcDbVertex
100
AcDb2dVertex
 10
52.95025633441869
 20
1217.969411587869
 30
0.0
  0
VERTEX
  5
54E
330
54C
100
AcDbEntity
  8
Layer 1
 62
     7
370
    25
100
AcDbVertex
100
AcDb2dVertex
 10
47.65841741430068
 20
1225.024622632112
 30
0.0
  0
SEQEND
  5
54F
330
54C
100
AcDbEntity
  8
Layer 1
370
    25
  0
POLYLINE
  5
550
330
3C
100
AcDbEntity
  8
Layer 1
 62
     7
370
    25
100
AcDb2dPolyline
 66
     1
 10
0.0
 20
0.0
 30
0.0
  0
VERTEX
  5
551
330
550
100
AcDbEntity
  8
Layer 1
 62
     7
370
    25
100
AcDbVertex
100
AcDb2dVertex
 10
47.65841741430068
 20
1225.024622632112
 30
0.0
  0
VERTEX
  5
552
330
550
100
AcDbEntity
  8
Layer 1
 62
     7
370
    25
100
AcDbVertex
100
AcDb2dVertex
 10
31.78376192781795
 20
1225.024622632112
 30
0.0
  0
SEQEND
  5
553
330
550
100
AcDbEntity
  8
Layer 1
370
    25
  0
POLYLINE
  5
554
330
3C
100
AcDbEntity
  8
Layer 1
 62
     7
370
    25
100
AcDb2dPolyline
 66
     1
 10
0.0
 20
0.0
 30
0.0
  0
VERTEX
  5
555
330
554
100
AcDbEntity
  8
Layer 1
 62
     7
370
    25
100
AcDbVertex
100
AcDb2dVertex
 10
31.78376192781795
 20
1225.024622632112
 30
0.0
  0
VERTEX
  5
556
330
554
100
AcDbEntity
  8
Layer 1
 62
     7
370
    25
100
AcDbVertex
100
AcDb2dVertex
 10
31.78376192781795
 20
1239.13590599447
 30
0.0
  0
SEQEND
  5
557
330
554
100
AcDbEntity
  8
Layer 1
370
    25
  0
POLYLINE
  5
558
330
3C
100
AcDbEntity
  8
Layer 1
 62
     7
370
    25
100
AcDb2dPolyline
 66
     1
 10
0.0
 20
0.0
 30
0.0
  0
VERTEX
  5
559
330
558
100
AcDbEntity
  8
Layer 1
 62
     7
370
    25
100
AcDbVertex
100
AcDb2dVertex
 10
31.78376192781795
 20
1239.13590599447
 30
0.0
  0
VERTEX
  5
55A
330
558
100
AcDbEntity
  8
Layer 1
 62
     7
370
    25
100
AcDbVertex
100
AcDb2dVertex
 10
52.95025633441869
 20
1239.13590599447
 30
0.0
  0
SEQEND
  5
55B
330
558
100
AcDbEntity
  8
Layer 1
370
    25
  0
ENDBLK
  5
3F
330
3C
100
AcDbEntity
  8
0
100
AcDbBlockEnd
  0
BLOCK
  5
55F
330
55D
100
AcDbEntity
  8
0
100
AcDbBlockBegin
  2
block 3
 70
     0
 71
     0
 10
0.0
 20
0.0
 30
0.0
  3
block 3
  1

  0
SPLINE
  5
561
330
55D
100
AcDbEntity
  8
Layer 1
370
     0
100
AcDbSpline
210
0.0
220
0.0
230
1.0
 70
    11
 71
     3
 72
    38
 73
    34
 74
     0
 42
0.0000000001
 43
0.0000000001
 40
0.0
 40
0.0
 40
0.0
 40
0.0
 40
1.0
 40
1.0
 40
1.0
 40
2.0
 40
2.0
 40
2.0
 40
3.0
 40
3.0
 40
3.0
 40
4.0
 40
4.0
 40
4.0
 40
5.0
 40
5.0
 40
5.0
 40
6.0
 40
6.0
 40
6.0
 40
7.0
 40
7.0
 40
7.0
 40
8.0
 40
8.0
 40
8.0
 40
9.0
 40
9.0
 40
9.0
 40
10.0
 40
10.0
 40
10.0
 40
11.0
 40
11.0
 40
11.0
 40
11.0
 10
1097.335259057264
 20
74.0723090092597
 30
0.0
 10
1097.335259057264
 20
74.0723090092597
 30
0.0
 10
1097.304253197896
 20
74.20701224273297
 30
0.0
 10
1097.304253197896
 20
74.20701224273297
 30
0.0
 10
1097.697683102312
 20
74.94598522431906
 30
0.0
 10
1098.333647728889
 20
75.28601614871322
 30
0.0
 10
1099.139800072437
 20
74.8236843345927
 30
0.0
 10
1099.846733666011
 20
74.46436087548113
 30
0.0
 10
1101.022200245578
 20
75.25225421295778
 30
0.0
 10
1101.76220675581
 20
75.42933212089962
 30
0.0
 10
1104.448692215207
 20
76.44012313627192
 30
0.0
 10
1107.275737570403
 20
77.13706595293796
 30
0.0
 10
1109.994606927363
 20
78.1027262174535
 30
0.0
 10
1109.994606927363
 20
78.1027262174535
 30
0.0
 10
1110.159282491557
 20
78.14923500650436
 30
0.0
 10
1110.354274896023
 20
78.14992402560141
 30
0.0
 10
1111.098415520837
 20
78.15543617837781
 30
0.0
 10
1111.629649244662
 20
77.47847491552622
 30
0.0
 10
1110.980593255241
 20
76.8507785181137
 30
0.0
 10
1110.2895071009
 20
76.18311901307229
 30
0.0
 10
1108.357497552772
 20
75.5147704889338
 30
0.0
 10
1107.465217822092
 20
75.08482257237463
 30
0.0
 10
1107.465217822092
 20
75.08482257237463
 30
0.0
 10
1101.102815479933
 20
72.64121634468692
 30
0.0
 10
1100.553667259584
 20
72.3942029983945
 30
0.0
 10
1100.446869299541
 20
72.34700519024659
 30
0.0
 10
1100.357296816925
 20
72.29050562428849
 30
0.0
 10
1100.271169429793
 20
72.22711586735988
 30
0.0
 10
1100.271169429793
 20
72.22711586735988
 30
0.0
 10
1100.002451981944
 20
72.02351072418162
 30
0.0
 10
1100.002451981944
 20
72.02351072418162
 30
0.0
 10
1098.743614091634
 20
71.11779512110944
 30
0.0
 10
1097.552300072834
 20
73.09355738190023
 30
0.0
 10
1097.335259057264
 20
74.0723090092597
 30
0.0
  0
HATCH
  5
562
330
55D
100
AcDbEntity
  8
Layer 1
 62
   254
100
AcDbHatch
 10
0.0
 20
0.0
 30
0.0
210
0.0
220
0.0
230
1.0
  2
SOLID
 70
     1
 71
     0
 91
        1
 92
        1
 93
        2
 72
     4
 94
        3
 73
     0
 74
     0
 95
       38
 96
       34
 40
0.0
 40
0.0
 40
0.0
 40
0.0
 40
0.3527777776895833
 40
0.3527777776895833
 40
0.3527777776895833
 40
0.7055555553791667
 40
0.7055555553791667
 40
0.7055555553791667
 40
1.05833333306875
 40
1.05833333306875
 40
1.05833333306875
 40
1.411111110758333
 40
1.411111110758333
 40
1.411111110758333
 40
1.763888888447917
 40
1.763888888447917
 40
1.763888888447917
 40
2.1166666661375
 40
2.1166666661375
 40
2.1166666661375
 40
2.469444443827083
 40
2.469444443827083
 40
2.469444443827083
 40
2.822222221516667
 40
2.822222221516667
 40
2.822222221516667
 40
3.17499999920625
 40
3.17499999920625
 40
3.17499999920625
 40
3.527777776895833
 40
3.527777776895833
 40
3.527777776895833
 40
3.880555554585417
 40
3.880555554585417
 40
3.880555554585417
 40
3.880555554585417
 10
1097.335259057264
 20
74.0723090092597
 10
1097.335259057264
 20
74.0723090092597
 10
1097.304253197896
 20
74.20701224273297
 10
1097.304253197896
 20
74.20701224273297
 10
1097.697683102312
 20
74.94598522431906
 10
1098.333647728889
 20
75.28601614871322
 10
1099.139800072437
 20
74.8236843345927
 10
1099.846733666011
 20
74.46436087548113
 10
1101.022200245578
 20
75.25225421295778
 10
1101.76220675581
 20
75.42933212089962
 10
1104.448692215207
 20
76.44012313627192
 10
1107.275737570403
 20
77.13706595293796
 10
1109.994606927363
 20
78.1027262174535
 10
1109.994606927363
 20
78.1027262174535
 10
1110.159282491557
 20
78.14923500650436
 10
1110.354274896023
 20
78.14992402560141
 10
1111.098415520837
 20
78.15543617837781
 10
1111.629649244662
 20
77.47847491552622
 10
1110.980593255241
 20
76.8507785181137
 10
1110.2895071009
 20
76.18311901307229
 10
1108.357497552772
 20
75.5147704889338
 10
1107.465217822092
 20
75.08482257237463
 10
1107.465217822092
 20
75.08482257237463
 10
1101.102815479933
 20
72.64121634468692
 10
1100.553667259584
 20
72.3942029983945
 10
1100.446869299541
 20
72.34700519024659
 10
1100.357296816925
 20
72.29050562428849
 10
1100.271169429793
 20
72.22711586735988
 10
1100.271169429793
 20
72.22711586735988
 10
1100.002451981944
 20
72.02351072418162
 10
1100.002451981944
 20
72.02351072418162
 10
1098.743614091634
 20
71.11779512110944
 10
1097.552300072834
 20
73.09355738190023
 10
1097.335259057264
 20
74.0723090092597
 72
     1
 10
1097.335259057264
 20
74.0723090092597
 11
1097.335259057264
 21
74.0723090092597
 97
        0
 75
     2
 76
     1
 98
        0
  0
SPLINE
  5
563
330
55D
100
AcDbEntity
  8
Layer 1
370
     0
100
AcDbSpline
210
0.0
220
0.0
230
1.0
 70
    11
 71
     3
 72
    14
 73
    10
 74
     0
 42
0.0000000001
 43
0.0000000001
 40
0.0
 40
0.0
 40
0.0
 40
0.0
 40
1.0
 40
1.0
 40
1.0
 40
2.0
 40
2.0
 40
2.0
 40
3.0
 40
3.0
 40
3.0
 40
3.0
 10
1070.81973714549
 20
79.59238550527552
 30
0.0
 10
1070.604074168113
 20
76.65992022823086
 30
0.0
 10
1069.400357805567
 20
74.71929794138963
 30
0.0
 10
1067.965131026412
 20
72.297395815259
 30
0.0
 10
1067.983045522935
 20
75.33907061918607
 30
0.0
 10
1068.396456981165
 20
78.06069605253344
 30
0.0
 10
1070.265076772364
 20
80.03370223693602
 30
0.0
 10
1070.504855418138
 20
80.36064179848623
 30
0.0
 10
1070.88037082603
 20
80.30379772297961
 30
0.0
 10
1070.81973714549
 20
79.59238550527552
 30
0.0
  0
SPLINE
  5
564
330
55D
100
AcDbEntity
  8
Layer 1
370
     0
100
AcDbSpline
210
0.0
220
0.0
230
1.0
 70
    11
 71
     3
 72
    14
 73
    10
 74
     0
 42
0.0000000001
 43
0.0000000001
 40
0.0
 40
0.0
 40
0.0
 40
0.0
 40
1.0
 40
1.0
 40
1.0
 40
2.0
 40
2.0
 40
2.0
 40
3.0
 40
3.0
 40
3.0
 40
3.0
 10
1100.052061356932
 20
67.3388698833389
 30
0.0
 10
1100.042415089573
 20
67.09254555614353
 30
0.0
 10
1099.455370818886
 20
66.44383407627099
 30
0.0
 10
1098.399104543109
 20
66.26089950600422
 30
0.0
 10
1098.206179195935
 20
67.50251191888826
 30
0.0
 10
1098.805625810368
 20
68.22770451853336
 30
0.0
 10
1099.392670081055
 20
68.22770451853336
 30
0.0
 10
1099.878428544475
 20
68.22770451853336
 30
0.0
 10
1100.078933101717
 20
68.04545896736364
 30
0.0
 10
1100.052061356932
 20
67.3388698833389
 30
0.0
  0
SPLINE
  5
565
330
55D
100
AcDbEntity
  8
Layer 1
370
     0
100
AcDbSpline
210
0.0
220
0.0
230
1.0
 70
    11
 71
     3
 72
   200
 73
   196
 74
     0
 42
0.0000000001
 43
0.0000000001
 40
0.0
 40
0.0
 40
0.0
 40
0.0
 40
1.0
 40
1.0
 40
1.0
 40
2.0
 40
2.0
 40
2.0
 40
3.0
 40
3.0
 40
3.0
 40
4.0
 40
4.0
 40
4.0
 40
5.0
 40
5.0
 40
5.0
 40
6.0
 40
6.0
 40
6.0
 40
7.0
 40
7.0
 40
7.0
 40
8.0
 40
8.0
 40
8.0
 40
9.0
 40
9.0
 40
9.0
 40
10.0
 40
10.0
 40
10.0
 40
11.0
 40
11.0
 40
11.0
 40
12.0
 40
12.0
 40
12.0
 40
13.0
 40
13.0
 40
13.0
 40
14.0
 40
14.0
 40
14.0
 40
15.0
 40
15.0
 40
15.0
 40
16.0
 40
16.0
 40
16.0
 40
17.0
 40
17.0
 40
17.0
 40
18.0
 40
18.0
 40
18.0
 40
19.0
 40
19.0
 40
19.0
 40
20.0
 40
20.0
 40
20.0
 40
21.0
 40
21.0
 40
21.0
 40
22.0
 40
22.0
 40
22.0
 40
23.0
 40
23.0
 40
23.0
 40
24.0
 40
24.0
 40
24.0
 40
25.0
 40
25.0
 40
25.0
 40
26.0
 40
26.0
 40
26.0
 40
27.0
 40
27.0
 40
27.0
 40
28.0
 40
28.0
 40
28.0
 40
29.0
 40
29.0
 40
29.0
 40
30.0
 40
30.0
 40
30.0
 40
31.0
 40
31.0
 40
31.0
 40
32.0
 40
32.0
 40
32.0
 40
33.0
 40
33.0
 40
33.0
 40
34.0
 40
34.0
 40
34.0
 40
35.0
 40
35.0
 40
35.0
 40
36.0
 40
36.0
 40
36.0
 40
37.0
 40
37.0
 40
37.0
 40
38.0
 40
38.0
 40
38.0
 40
39.0
 40
39.0
 40
39.0
 40
40.0
 40
40.0
 40
40.0
 40
41.0
 40
41.0
 40
41.0
 40
42.0
 40
42.0
 40
42.0
 40
43.0
 40
43.0
 40
43.0
 40
44.0
 40
44.0
 40
44.0
 40
45.0
 40
45.0
 40
45.0
 40
46.0
 40
46.0
 40
46.0
 40
47.0
 40
47.0
 40
47.0
 40
48.0
 40
48.0
 40
48.0
 40
49.0
 40
49.0
 40
49.0
 40
50.0
 40
50.0
 40
50.0
 40
51.0
 40
51.0
 40
51.0
 40
52.0
 40
52.0
 40
52.0
 40
53.0
 40
53.0
 40
53.0
 40
54.0
 40
54.0
 40
54.0
 40
55.0
 40
55.0
 40
55.0
 40
56.0
 40
56.0
 40
56.0
 40
57.0
 40
57.0
 40
57.0
 40
58.0
 40
58.0
 40
58.0
 40
59.0
 40
59.0
 40
59.0
 40
60.0
 40
60.0
 40
60.0
 40
61.0
 40
61.0
 40
61.0
 40
62.0
 40
62.0
 40
62.0
 40
63.0
 40
63.0
 40
63.0
 40
64.0
 40
64.0
 40
64.0
 40
65.0
 40
65.0
 40
65.0
 40
65.0
 10
1107.849001459149
 20
64.75401474075595
 30
0.0
 10
1107.849001459149
 20
64.75401474075595
 30
0.0
 10
1108.077755799369
 20
63.79903427224469
 30
0.0
 10
1108.077755799369
 20
63.79903427224469
 30
0.0
 10
1108.20384629413
 20
63.30362954146576
 30
0.0
 10
1108.349229323607
 20
62.84336478463639
 30
0.0
 10
1108.592453064866
 20
62.39033472832603
 30
0.0
 10
1110.135855842258
 20
60.32499998491875
 30
0.0
 10
1114.07566703919
 20
60.56167804475542
 30
0.0
 10
1116.094492993546
 20
61.18765189442531
 30
0.0
 10
1117.212770988058
 20
61.53526202888702
 30
0.0
 10
1118.286951760359
 20
62.10955944627817
 30
0.0
 10
1119.294297680246
 20
62.70831704161459
 30
0.0
 10
1121.862271854951
 20
61.02022025384217
 30
0.0
 10
1125.105484744765
 20
60.4979437782783
 30
0.0
 10
1128.354898806453
 20
60.48519692498287
 30
0.0
 10
1131.675970854234
 20
60.47279458123597
 30
0.0
 10
1135.066633830817
 20
60.99541556634837
 30
0.0
 10
1137.853716078384
 20
61.4012478145108
 30
0.0
 10
1140.817876233893
 20
61.59141708529659
 30
0.0
 10
1143.181211736774
 20
62.98909232366245
 30
0.0
 10
1146.299712170022
 20
62.31833223268431
 30
0.0
 10
1146.972194808743
 20
62.5429524583226
 30
0.0
 10
1147.502050494375
 20
62.88608396865348
 30
0.0
 10
1147.452441119387
 20
63.72220864292362
 30
0.0
 10
1147.150650754879
 20
64.46221515315528
 30
0.0
 10
1146.73241616297
 20
64.97932398549128
 30
0.0
 10
1145.860807005201
 20
65.04857040474481
 30
0.0
 10
1144.390440252097
 20
64.41605087365294
 30
0.0
 10
1142.730593247303
 20
64.60346406805053
 30
0.0
 10
1141.195458699076
 20
64.2265706219642
 30
0.0
 10
1137.293543552482
 20
63.31706541385824
 30
0.0
 10
1133.139447416368
 20
62.96015352158636
 30
0.0
 10
1128.724213042472
 20
62.72106389491002
 30
0.0
 10
1125.986740169892
 20
62.74414603466119
 30
0.0
 10
1122.526486264507
 20
62.78652070912976
 30
0.0
 10
1120.617903365679
 20
65.09370115560158
 30
0.0
 10
1120.407063521982
 20
65.788921424525
 30
0.0
 10
1120.977571334339
 20
66.71186250502343
 30
0.0
 10
1120.750195032313
 20
67.70026039974161
 30
0.0
 10
1120.393972159138
 20
68.38996851588863
 30
0.0
 10
1119.810372983936
 20
68.84644366768423
 30
0.0
 10
1118.962190475468
 20
68.62251246114299
 30
0.0
 10
1117.799126239647
 20
67.78225367229055
 30
0.0
 10
1117.81497367888
 20
66.3956027394775
 30
0.0
 10
1117.919015562534
 20
65.13504230142458
 30
0.0
 10
1116.244699156703
 20
62.97117782713915
 30
0.0
 10
1112.391015346902
 20
62.06787379090665
 30
0.0
 10
1110.740814609468
 20
63.74563529222332
 30
0.0
 10
1110.654687222336
 20
64.04225801350333
 30
0.0
 10
1110.489322639044
 20
64.62447915051055
 30
0.0
 10
1110.657443298725
 20
65.05270451932711
 30
0.0
 10
1110.67260171886
 20
65.10438095160585
 30
0.0
 10
1110.688449158092
 20
65.16053600801543
 30
0.0
 10
1110.696028368159
 20
65.22427027449254
 30
0.0
 10
1110.782155755291
 20
65.87435979255919
 30
0.0
 10
1110.568559835205
 20
66.36149629417352
 30
0.0
 10
1109.973936354451
 20
66.57268064741933
 30
0.0
 10
1108.843256016192
 20
66.98781465339194
 30
0.0
 10
1108.910090868606
 20
67.49527721836924
 30
0.0
 10
1108.109450677834
 20
68.20186630239398
 30
0.0
 10
1107.286072856859
 20
68.96013181869748
 30
0.0
 10
1106.326958273766
 20
68.59495169726098
 30
0.0
 10
1105.755072423214
 20
67.8353081427634
 30
0.0
 10
1105.614512527416
 20
65.8013237682719
 30
0.0
 10
1104.177907710067
 20
64.1342420629595
 30
0.0
 10
1102.597986920531
 20
63.03904620819858
 30
0.0
 10
1101.588573943353
 20
62.69005803554277
 30
0.0
 10
1100.323534881169
 20
62.80546873429864
 30
0.0
 10
1099.497400983806
 20
63.36598576974878
 30
0.0
 10
1099.22317138318
 20
63.55546602143752
 30
0.0
 10
1099.126708709593
 20
63.76492782694071
 30
0.0
 10
1099.121196556817
 20
63.91272242325793
 30
0.0
 10
1100.438601070377
 20
64.28341469747082
 30
0.0
 10
1101.61957980272
 20
65.17913952363577
 30
0.0
 10
1102.294129498732
 20
66.40972763096701
 30
0.0
 10
1103.092702632213
 20
68.55257702279242
 30
0.0
 10
1101.543787702045
 20
70.83977591544978
 30
0.0
 10
1099.163226721737
 20
70.5076687106717
 30
0.0
 10
1096.968011878536
 20
70.20036619338741
 30
0.0
 10
1095.88556287707
 20
68.65076224412203
 30
0.0
 10
1095.989604760725
 20
65.98046873350489
 30
0.0
 10
1094.782443302693
 20
66.03076712758953
 30
0.0
 10
1093.700683320325
 20
66.43246526116967
 30
0.0
 10
1092.578960230328
 20
66.88377276973739
 30
0.0
 10
1091.617089570846
 20
67.27237954047358
 30
0.0
 10
1091.444834796583
 20
68.17533906715755
 30
0.0
 10
1090.044058972281
 20
67.91385631982709
 30
0.0
 10
1088.942317436098
 20
66.7487250267156
 30
0.0
 10
1089.714707843891
 20
65.98322480989309
 30
0.0
 10
1090.436799857599
 20
65.06303980578285
 30
0.0
 10
1091.160269909502
 20
64.1452663685123
 30
0.0
 10
1091.127196992843
 20
62.76860621260646
 30
0.0
 10
1089.981358234449
 20
62.11817218499129
 30
0.0
 10
1088.338736707082
 20
61.72887639515806
 30
0.0
 10
1086.964832627564
 20
63.16685925070134
 30
0.0
 10
1085.965754936842
 20
64.23277179383764
 30
0.0
 10
1085.978846299686
 20
64.86839191086624
 30
0.0
 10
1085.997449815306
 20
66.1020806041342
 30
0.0
 10
1085.834152289305
 20
66.64571667170662
 30
0.0
 10
1085.508935275498
 20
67.73677841188525
 30
0.0
 10
1084.804068739216
 20
68.67349987432469
 30
0.0
 10
1083.510090874956
 20
68.24114039092584
 30
0.0
 10
1082.701871474116
 20
67.16627059952788
 30
0.0
 10
1083.011241048692
 20
65.87883841669002
 30
0.0
 10
1083.454280328095
 20
64.782264523735
 30
0.0
 10
1083.092545302144
 20
63.65916339554354
 30
0.0
 10
1082.557866482833
 20
62.56396754078262
 30
0.0
 10
1081.509179417123
 20
62.00724011036625
 30
0.0
 10
1080.290304634441
 20
61.71681856095969
 30
0.0
 10
1078.168125815527
 20
62.00827363901183
 30
0.0
 10
1077.290315485886
 20
64.18419594749562
 30
0.0
 10
1077.340613879971
 20
64.47323945870808
 30
0.0
 10
1077.474283584798
 20
65.29558375103721
 30
0.0
 10
1077.475661622992
 20
66.13377548259851
 30
0.0
 10
1077.477039661186
 20
66.65122882448303
 30
0.0
 10
1077.428808324393
 20
67.21105684083612
 30
0.0
 10
1077.262065702907
 20
67.66753199263174
 30
0.0
 10
1076.716362578043
 20
69.15064559903179
 30
0.0
 10
1074.492208932766
 20
69.13514266934816
 30
0.0
 10
1074.49358697096
 20
66.58439397206918
 30
0.0
 10
1074.49358697096
 20
65.97426756163144
 30
0.0
 10
1074.584537491771
 20
65.36241860345106
 30
0.0
 10
1074.72716444486
 20
64.7712402181822
 30
0.0
 10
1073.842463924248
 20
62.95395234971291
 30
0.0
 10
1072.021386450745
 20
62.58911673782494
 30
0.0
 10
1070.74256700662
 20
62.83371851727768
 30
0.0
 10
1068.864989967159
 20
63.79179957172566
 30
0.0
 10
1068.258653161755
 20
65.8343966849303
 30
0.0
 10
1067.993380809391
 20
67.9372829691268
 30
0.0
 10
1069.336968048638
 20
69.7893663019971
 30
0.0
 10
1070.469715444188
 20
71.41200627554979
 30
0.0
 10
1071.64173692827
 20
73.66613225154875
 30
0.0
 10
1072.986702205712
 20
76.16486000700046
 30
0.0
 10
1073.507600643082
 20
77.18667532792556
 30
0.0
 10
1073.612331545833
 20
80.26693520128744
 30
0.0
 10
1073.291248646608
 20
84.06205238783866
 30
0.0
 10
1068.623144264094
 20
82.97822534817905
 30
0.0
 10
1067.627511668857
 20
80.9669786038902
 30
0.0
 10
1065.249706764938
 20
77.24179685568956
 30
0.0
 10
1064.839740402193
 20
72.23538409652448
 30
0.0
 10
1065.258664013199
 20
67.99826115921572
 30
0.0
 10
1064.792198084496
 20
67.12182886776816
 30
0.0
 10
1064.088709586408
 20
66.44865720995034
 30
0.0
 10
1063.395556374776
 20
65.75550399831808
 30
0.0
 10
1062.756146652714
 20
65.20497773977515
 30
0.0
 10
1062.232492138956
 20
65.05614961481236
 30
0.0
 10
1061.859043788355
 20
64.2017659344704
 30
0.0
 10
1062.045078944558
 20
63.85691187639689
 30
0.0
 10
1062.099511453225
 20
63.80213485818141
 30
0.0
 10
1062.541172694434
 20
63.5358289771716
 30
0.0
 10
1063.901296392011
 20
63.11862791390784
 30
0.0
 10
1064.710204811948
 20
63.94751788765895
 30
0.0
 10
1065.576990836036
 20
64.77847491870122
 30
0.0
 10
1065.576990836036
 20
64.77847491870122
 30
0.0
 10
1065.95457330122
 20
65.1298746581967
 30
0.0
 10
1065.95457330122
 20
65.1298746581967
 30
0.0
 10
1066.850987146482
 20
63.25333114738111
 30
0.0
 10
1068.22006809232
 20
61.09980195955144
 30
0.0
 10
1070.426307241074
 20
60.48623045362844
 30
0.0
 10
1071.705126685199
 20
60.27160100489738
 30
0.0
 10
1073.254041615367
 20
60.27986923406198
 30
0.0
 10
1074.412282717508
 20
61.00333928596444
 30
0.0
 10
1074.412282717508
 20
61.00333928596444
 30
0.0
 10
1076.118294001804
 20
62.09887965027389
 30
0.0
 10
1076.118294001804
 20
62.09887965027389
 30
0.0
 10
1077.359217395591
 20
60.63540308813976
 30
0.0
 10
1078.970144044494
 20
59.45924748947547
 30
0.0
 10
1081.09645697799
 20
59.65940753716848
 30
0.0
 10
1082.498610840486
 20
59.72004121770888
 30
0.0
 10
1083.607931586737
 20
60.71877439888281
 30
0.0
 10
1084.503656412902
 20
61.68891328752916
 30
0.0
 10
1084.503656412902
 20
61.68891328752916
 30
0.0
 10
1085.018353678398
 20
62.26389972401736
 30
0.0
 10
1085.018353678398
 20
62.26389972401736
 30
0.0
 10
1086.398458929789
 20
60.8124809960816
 30
0.0
 10
1088.005940483207
 20
59.45959199902399
 30
0.0
 10
1090.411306151008
 20
59.9050428452668
 30
0.0
 10
1091.885807018695
 20
60.09555662560111
 30
0.0
 10
1092.670599770235
 20
60.90963268876565
 30
0.0
 10
1093.246619735369
 20
62.19982094799171
 30
0.0
 10
1093.518093259607
 20
62.83130695043801
 30
0.0
 10
1093.439545082543
 20
63.51998153793945
 30
0.0
 10
1093.371332191935
 20
64.17902830426775
 30
0.0
 10
1094.373854978143
 20
63.92064614287401
 30
0.0
 10
1095.413584795591
 20
63.70670571323999
 30
0.0
 10
1096.449180498457
 20
63.66743162470814
 30
0.0
 10
1096.803336314341
 20
62.75172524472874
 30
0.0
 10
1097.429654673559
 20
61.68822426843212
 30
0.0
 10
1098.352940263606
 20
61.26275497600376
 30
0.0
 10
1100.351784664148
 20
60.34188095279648
 30
0.0
 10
1100.464783796064
 20
60.49346515414747
 30
0.0
 10
1102.344427892817
 20
60.59302841367119
 30
0.0
 10
1104.743592388745
 20
61.03847925991399
 30
0.0
 10
1106.506103238999
 20
62.91226669434138
 30
0.0
 10
1107.849001459149
 20
64.75401474075595
 30
0.0
  0
SPLINE
  5
566
330
55D
100
AcDbEntity
  8
Layer 1
370
     0
100
AcDbSpline
210
0.0
220
0.0
230
1.0
 70
    11
 71
     3
 72
    53
 73
    49
 74
     0
 42
0.0000000001
 43
0.0000000001
 40
0.0
 40
0.0
 40
0.0
 40
0.0
 40
1.0
 40
1.0
 40
1.0
 40
2.0
 40
2.0
 40
2.0
 40
3.0
 40
3.0
 40
3.0
 40
4.0
 40
4.0
 40
4.0
 40
5.0
 40
5.0
 40
5.0
 40
6.0
 40
6.0
 40
6.0
 40
7.0
 40
7.0
 40
7.0
 40
8.0
 40
8.0
 40
8.0
 40
9.0
 40
9.0
 40
9.0
 40
10.0
 40
10.0
 40
10.0
 40
11.0
 40
11.0
 40
11.0
 40
12.0
 40
12.0
 40
12.0
 40
13.0
 40
13.0
 40
13.0
 40
14.0
 40
14.0
 40
14.0
 40
15.0
 40
15.0
 40
15.0
 40
16.0
 40
16.0
 40
16.0
 40
16.0
 10
1049.276866057125
 20
78.11960718533122
 30
0.0
 10
1049.276866057125
 20
78.11960718533122
 30
0.0
 10
1048.767680944405
 20
78.59055173816486
 30
0.0
 10
1048.767680944405
 20
78.59055173816486
 30
0.0
 10
1048.767680944405
 20
78.59055173816486
 30
0.0
 10
1049.258262541505
 20
78.82757430755005
 30
0.0
 10
1049.258262541505
 20
78.82757430755005
 30
0.0
 10
1050.029274911104
 20
79.074932163391
 30
0.0
 10
1050.865744094923
 20
79.13659937257697
 30
0.0
 10
1051.257795961144
 20
78.24156356550905
 30
0.0
 10
1051.353569615634
 20
77.45642630442062
 30
0.0
 10
1051.026285544535
 20
76.98238116565024
 30
0.0
 10
1050.470247133216
 20
76.49317760674477
 30
0.0
 10
1049.27342096164
 20
76.38431258941087
 30
0.0
 10
1048.471402732674
 20
75.28153752458239
 30
0.0
 10
1047.731396222442
 20
74.45505911767096
 30
0.0
 10
1046.877701561197
 20
72.44277884473654
 30
0.0
 10
1047.580501040188
 20
70.02501083318819
 30
0.0
 10
1047.998735632098
 20
67.99826115921572
 30
0.0
 10
1047.998735632098
 20
67.99826115921572
 30
0.0
 10
1048.254361717103
 20
67.74952526518068
 30
0.0
 10
1048.254361717103
 20
67.74952526518068
 30
0.0
 10
1048.715315493029
 20
67.29305011338508
 30
0.0
 10
1049.090141881825
 20
66.80729164996485
 30
0.0
 10
1049.057068965166
 20
66.1103488332988
 30
0.0
 10
1048.618163800345
 20
64.93040362960073
 30
0.0
 10
1046.276187889473
 20
64.35645072175811
 30
0.0
 10
1046.02676297634
 20
66.24022893309272
 30
0.0
 10
1045.603016231655
 20
66.98781465339194
 30
0.0
 10
1045.432828514683
 20
67.5304171923188
 30
0.0
 10
1045.32396349735
 20
68.08404403679843
 30
0.0
 10
1045.32396349735
 20
68.08404403679843
 30
0.0
 10
1045.247482377577
 20
68.52088214432811
 30
0.0
 10
1045.247482377577
 20
68.52088214432811
 30
0.0
 10
1045.103477386294
 20
67.42947589460097
 30
0.0
 10
1045.278488236944
 20
66.1585801700923
 30
0.0
 10
1045.461078297663
 20
65.08612194553403
 30
0.0
 10
1045.837282724652
 20
63.66605358651405
 30
0.0
 10
1046.817067880657
 20
62.5815375277574
 30
0.0
 10
1048.221288800445
 20
62.01137422494855
 30
0.0
 10
1051.439697002765
 20
61.24828557496571
 30
0.0
 10
1054.094487583699
 20
63.44694551365215
 30
0.0
 10
1055.930723477337
 20
65.82578394621717
 30
0.0
 10
1058.822536627656
 20
69.95541990438615
 30
0.0
 10
1061.390510802361
 20
75.13305390916813
 30
0.0
 10
1059.054047044264
 20
80.13567706329941
 30
0.0
 10
1056.265586758503
 20
83.62486977076045
 30
0.0
 10
1050.795464147023
 20
82.00429685449893
 30
0.0
 10
1049.276866057125
 20
78.11960718533122
 30
0.0
  0
SPLINE
  5
567
330
55D
100
AcDbEntity
  8
Layer 1
370
     0
100
AcDbSpline
210
0.0
220
0.0
230
1.0
 70
    11
 71
     3
 72
    23
 73
    19
 74
     0
 42
0.0000000001
 43
0.0000000001
 40
0.0
 40
0.0
 40
0.0
 40
0.0
 40
1.0
 40
1.0
 40
1.0
 40
2.0
 40
2.0
 40
2.0
 40
3.0
 40
3.0
 40
3.0
 40
4.0
 40
4.0
 40
4.0
 40
5.0
 40
5.0
 40
5.0
 40
6.0
 40
6.0
 40
6.0
 40
6.0
 10
1057.936458068849
 20
64.11908364282439
 30
0.0
 10
1055.671652296846
 20
61.04364690314187
 30
0.0
 10
1051.981955032144
 20
58.99415959896674
 30
0.0
 10
1048.03318658695
 20
59.55019801028607
 30
0.0
 10
1045.249549434868
 20
60.29158255871183
 30
0.0
 10
1043.447764496083
 20
62.99598251463295
 30
0.0
 10
1042.987499739253
 20
65.65559622924583
 30
0.0
 10
1042.426638194255
 20
69.13238659295996
 30
0.0
 10
1043.369216319019
 20
72.29877385345308
 30
0.0
 10
1045.205452212657
 20
74.91601289359738
 30
0.0
 10
1045.7559784712
 20
78.71767576157059
 30
0.0
 10
1047.918120397743
 20
82.36844344728983
 30
0.0
 10
1051.691188973188
 20
84.04654945815503
 30
0.0
 10
1054.043500170517
 20
84.90472274353077
 30
0.0
 10
1059.310362148367
 20
85.28264971826268
 30
0.0
 10
1061.094921609726
 20
81.42517630342843
 30
0.0
 10
1064.334689404055
 20
75.45034720335964
 30
0.0
 10
1061.085964361465
 20
68.8901963803469
 30
0.0
 10
1057.936458068849
 20
64.11908364282439
 30
0.0
  0
SPLINE
  5
568
330
55D
100
AcDbEntity
  8
Layer 1
370
     0
100
AcDbSpline
210
0.0
220
0.0
230
1.0
 70
    11
 71
     3
 72
    17
 73
    13
 74
     0
 42
0.0000000001
 43
0.0000000001
 40
0.0
 40
0.0
 40
0.0
 40
0.0
 40
1.0
 40
1.0
 40
1.0
 40
2.0
 40
2.0
 40
2.0
 40
3.0
 40
3.0
 40
3.0
 40
4.0
 40
4.0
 40
4.0
 40
4.0
 10
1120.519373634801
 20
71.15913626693244
 30
0.0
 10
1120.672335874346
 20
71.62422415744118
 30
0.0
 10
1120.622726499358
 20
72.24330781614057
 30
0.0
 10
1120.34436278415
 20
72.67153318495713
 30
0.0
 10
1119.742160093328
 20
73.42945419171208
 30
0.0
 10
1118.581851933896
 20
73.96792261605664
 30
0.0
 10
1117.861826977479
 20
72.97470158765911
 30
0.0
 10
1117.499402932431
 20
72.08827851930432
 30
0.0
 10
1117.770876456668
 20
71.20598956553184
 30
0.0
 10
1118.482633183921
 20
70.59758570283672
 30
0.0
 10
1119.239176152482
 20
70.41637368031257
 30
0.0
 10
1120.101139042891
 20
70.23516165778844
 30
0.0
 10
1120.519373634801
 20
71.15913626693244
 30
0.0
  0
SPLINE
  5
569
330
55D
100
AcDbEntity
  8
Layer 1
370
     0
100
AcDbSpline
210
0.0
220
0.0
230
1.0
 70
    11
 71
     3
 72
    17
 73
    13
 74
     0
 42
0.0000000001
 43
0.0000000001
 40
0.0
 40
0.0
 40
0.0
 40
0.0
 40
1.0
 40
1.0
 40
1.0
 40
2.0
 40
2.0
 40
2.0
 40
3.0
 40
3.0
 40
3.0
 40
4.0
 40
4.0
 40
4.0
 40
4.0
 10
1077.080853680383
 20
72.5788601164039
 30
0.0
 10
1076.691557890549
 20
72.02075464779342
 30
0.0
 10
1075.730376250165
 20
72.01937660959932
 30
0.0
 10
1075.233593481192
 20
72.22229273368055
 30
0.0
 10
1074.514946562969
 20
72.5154703594753
 30
0.0
 10
1073.832128637792
 20
73.46356063701606
 30
0.0
 10
1074.358539227938
 20
74.38030054564103
 30
0.0
 10
1074.946272517722
 20
75.40349390476024
 30
0.0
 10
1076.1658363195
 20
75.12237411316386
 30
0.0
 10
1076.795599774204
 20
74.60939939541015
 30
0.0
 10
1077.190407716814
 20
74.28831649618486
 30
0.0
 10
1077.606575251432
 20
73.33057995128542
 30
0.0
 10
1077.080853680383
 20
72.5788601164039
 30
0.0
  0
HATCH
  5
56A
330
55D
100
AcDbEntity
  8
Layer 1
 62
   152
100
AcDbHatch
 10
0.0
 20
0.0
 30
0.0
210
0.0
220
0.0
230
1.0
  2
SOLID
 70
     1
 71
     0
 91
        7
 92
        1
 93
        2
 72
     4
 94
        3
 73
     0
 74
     0
 95
       14
 96
       10
 40
0.0
 40
0.0
 40
0.0
 40
0.0
 40
0.3527777776895833
 40
0.3527777776895833
 40
0.3527777776895833
 40
0.7055555553791667
 40
0.7055555553791667
 40
0.7055555553791667
 40
1.05833333306875
 40
1.05833333306875
 40
1.05833333306875
 40
1.05833333306875
 10
1070.81973714549
 20
79.59238550527552
 10
1070.604074168113
 20
76.65992022823086
 10
1069.400357805567
 20
74.71929794138963
 10
1067.965131026412
 20
72.297395815259
 10
1067.983045522935
 20
75.33907061918607
 10
1068.396456981165
 20
78.06069605253344
 10
1070.265076772364
 20
80.03370223693602
 10
1070.504855418138
 20
80.36064179848623
 10
1070.88037082603
 20
80.30379772297961
 10
1070.81973714549
 20
79.59238550527552
 72
     1
 10
1070.81973714549
 20
79.59238550527552
 11
1070.81973714549
 21
79.59238550527552
 97
        0
 92
        1
 93
        2
 72
     4
 94
        3
 73
     0
 74
     0
 95
       14
 96
       10
 40
0.0
 40
0.0
 40
0.0
 40
0.0
 40
0.3527777776895833
 40
0.3527777776895833
 40
0.3527777776895833
 40
0.7055555553791667
 40
0.7055555553791667
 40
0.7055555553791667
 40
1.05833333306875
 40
1.05833333306875
 40
1.05833333306875
 40
1.05833333306875
 10
1100.052061356932
 20
67.3388698833389
 10
1100.042415089573
 20
67.09254555614353
 10
1099.455370818886
 20
66.44383407627099
 10
1098.399104543109
 20
66.26089950600422
 10
1098.206179195935
 20
67.50251191888826
 10
1098.805625810368
 20
68.22770451853336
 10
1099.392670081055
 20
68.22770451853336
 10
1099.878428544475
 20
68.22770451853336
 10
1100.078933101717
 20
68.04545896736364
 10
1100.052061356932
 20
67.3388698833389
 72
     1
 10
1100.052061356932
 20
67.3388698833389
 11
1100.052061356932
 21
67.3388698833389
 97
        0
 92
        1
 93
        2
 72
     4
 94
        3
 73
     0
 74
     0
 95
      200
 96
      196
 40
0.0
 40
0.0
 40
0.0
 40
0.0
 40
0.3527777776895833
 40
0.3527777776895833
 40
0.3527777776895833
 40
0.7055555553791667
 40
0.7055555553791667
 40
0.7055555553791667
 40
1.05833333306875
 40
1.05833333306875
 40
1.05833333306875
 40
1.411111110758333
 40
1.411111110758333
 40
1.411111110758333
 40
1.763888888447917
 40
1.763888888447917
 40
1.763888888447917
 40
2.1166666661375
 40
2.1166666661375
 40
2.1166666661375
 40
2.469444443827083
 40
2.469444443827083
 40
2.469444443827083
 40
2.822222221516667
 40
2.822222221516667
 40
2.822222221516667
 40
3.17499999920625
 40
3.17499999920625
 40
3.17499999920625
 40
3.527777776895833
 40
3.527777776895833
 40
3.527777776895833
 40
3.880555554585417
 40
3.880555554585417
 40
3.880555554585417
 40
4.233333332275
 40
4.233333332275
 40
4.233333332275
 40
4.586111109964584
 40
4.586111109964584
 40
4.586111109964584
 40
4.938888887654167
 40
4.938888887654167
 40
4.938888887654167
 40
5.29166666534375
 40
5.29166666534375
 40
5.29166666534375
 40
5.644444443033334
 40
5.644444443033334
 40
5.644444443033334
 40
5.997222220722917
 40
5.997222220722917
 40
5.997222220722917
 40
6.349999998412501
 40
6.349999998412501
 40
6.349999998412501
 40
6.702777776102083
 40
6.702777776102083
 40
6.702777776102083
 40
7.055555553791667
 40
7.055555553791667
 40
7.055555553791667
 40
7.40833333148125
 40
7.40833333148125
 40
7.40833333148125
 40
7.761111109170834
 40
7.761111109170834
 40
7.761111109170834
 40
8.113888886860417
 40
8.113888886860417
 40
8.113888886860417
 40
8.46666666455
 40
8.46666666455
 40
8.46666666455
 40
8.819444442239584
 40
8.819444442239584
 40
8.819444442239584
 40
9.172222219929168
 40
9.172222219929168
 40
9.172222219929168
 40
9.52499999761875
 40
9.52499999761875
 40
9.52499999761875
 40
9.877777775308333
 40
9.877777775308333
 40
9.877777775308333
 40
10.23055555299792
 40
10.23055555299792
 40
10.23055555299792
 40
10.5833333306875
 40
10.5833333306875
 40
10.5833333306875
 40
10.93611110837708
 40
10.93611110837708
 40
10.93611110837708
 40
11.28888888606667
 40
11.28888888606667
 40
11.28888888606667
 40
11.64166666375625
 40
11.64166666375625
 40
11.64166666375625
 40
11.99444444144583
 40
11.99444444144583
 40
11.99444444144583
 40
12.34722221913542
 40
12.34722221913542
 40
12.34722221913542
 40
12.699999996825
 40
12.699999996825
 40
12.699999996825
 40
13.05277777451458
 40
13.05277777451458
 40
13.05277777451458
 40
13.40555555220417
 40
13.40555555220417
 40
13.40555555220417
 40
13.75833332989375
 40
13.75833332989375
 40
13.75833332989375
 40
14.11111110758333
 40
14.11111110758333
 40
14.11111110758333
 40
14.46388888527292
 40
14.46388888527292
 40
14.46388888527292
 40
14.8166666629625
 40
14.8166666629625
 40
14.8166666629625
 40
15.16944444065208
 40
15.16944444065208
 40
15.16944444065208
 40
15.52222221834167
 40
15.52222221834167
 40
15.52222221834167
 40
15.87499999603125
 40
15.87499999603125
 40
15.87499999603125
 40
16.22777777372083
 40
16.22777777372083
 40
16.22777777372083
 40
16.58055555141042
 40
16.58055555141042
 40
16.58055555141042
 40
16.9333333291
 40
16.9333333291
 40
16.9333333291
 40
17.28611110678958
 40
17.28611110678958
 40
17.28611110678958
 40
17.63888888447917
 40
17.63888888447917
 40
17.63888888447917
 40
17.99166666216875
 40
17.99166666216875
 40
17.99166666216875
 40
18.34444443985834
 40
18.34444443985834
 40
18.34444443985834
 40
18.69722221754792
 40
18.69722221754792
 40
18.69722221754792
 40
19.0499999952375
 40
19.0499999952375
 40
19.0499999952375
 40
19.40277777292708
 40
19.40277777292708
 40
19.40277777292708
 40
19.75555555061667
 40
19.75555555061667
 40
19.75555555061667
 40
20.10833332830625
 40
20.10833332830625
 40
20.10833332830625
 40
20.46111110599583
 40
20.46111110599583
 40
20.46111110599583
 40
20.81388888368542
 40
20.81388888368542
 40
20.81388888368542
 40
21.166666661375
 40
21.166666661375
 40
21.166666661375
 40
21.51944443906459
 40
21.51944443906459
 40
21.51944443906459
 40
21.87222221675417
 40
21.87222221675417
 40
21.87222221675417
 40
22.22499999444375
 40
22.22499999444375
 40
22.22499999444375
 40
22.57777777213333
 40
22.57777777213333
 40
22.57777777213333
 40
22.93055554982292
 40
22.93055554982292
 40
22.93055554982292
 40
22.93055554982292
 10
1107.849001459149
 20
64.75401474075595
 10
1107.849001459149
 20
64.75401474075595
 10
1108.077755799369
 20
63.79903427224469
 10
1108.077755799369
 20
63.79903427224469
 10
1108.20384629413
 20
63.30362954146576
 10
1108.349229323607
 20
62.84336478463639
 10
1108.592453064866
 20
62.39033472832603
 10
1110.135855842258
 20
60.32499998491875
 10
1114.07566703919
 20
60.56167804475542
 10
1116.094492993546
 20
61.18765189442531
 10
1117.212770988058
 20
61.53526202888702
 10
1118.286951760359
 20
62.10955944627817
 10
1119.294297680246
 20
62.70831704161459
 10
1121.862271854951
 20
61.02022025384217
 10
1125.105484744765
 20
60.4979437782783
 10
1128.354898806453
 20
60.48519692498287
 10
1131.675970854234
 20
60.47279458123597
 10
1135.066633830817
 20
60.99541556634837
 10
1137.853716078384
 20
61.4012478145108
 10
1140.817876233893
 20
61.59141708529659
 10
1143.181211736774
 20
62.98909232366245
 10
1146.299712170022
 20
62.31833223268431
 10
1146.972194808743
 20
62.5429524583226
 10
1147.502050494375
 20
62.88608396865348
 10
1147.452441119387
 20
63.72220864292362
 10
1147.150650754879
 20
64.46221515315528
 10
1146.73241616297
 20
64.97932398549128
 10
1145.860807005201
 20
65.04857040474481
 10
1144.390440252097
 20
64.41605087365294
 10
1142.730593247303
 20
64.60346406805053
 10
1141.195458699076
 20
64.2265706219642
 10
1137.293543552482
 20
63.31706541385824
 10
1133.139447416368
 20
62.96015352158636
 10
1128.724213042472
 20
62.72106389491002
 10
1125.986740169892
 20
62.74414603466119
 10
1122.526486264507
 20
62.78652070912976
 10
1120.617903365679
 20
65.09370115560158
 10
1120.407063521982
 20
65.788921424525
 10
1120.977571334339
 20
66.71186250502343
 10
1120.750195032313
 20
67.70026039974161
 10
1120.393972159138
 20
68.38996851588863
 10
1119.810372983936
 20
68.84644366768423
 10
1118.962190475468
 20
68.62251246114299
 10
1117.799126239647
 20
67.78225367229055
 10
1117.81497367888
 20
66.3956027394775
 10
1117.919015562534
 20
65.13504230142458
 10
1116.244699156703
 20
62.97117782713915
 10
1112.391015346902
 20
62.06787379090665
 10
1110.740814609468
 20
63.74563529222332
 10
1110.654687222336
 20
64.04225801350333
 10
1110.489322639044
 20
64.62447915051055
 10
1110.657443298725
 20
65.05270451932711
 10
1110.67260171886
 20
65.10438095160585
 10
1110.688449158092
 20
65.16053600801543
 10
1110.696028368159
 20
65.22427027449254
 10
1110.782155755291
 20
65.87435979255919
 10
1110.568559835205
 20
66.36149629417352
 10
1109.973936354451
 20
66.57268064741933
 10
1108.843256016192
 20
66.98781465339194
 10
1108.910090868606
 20
67.49527721836924
 10
1108.109450677834
 20
68.20186630239398
 10
1107.286072856859
 20
68.96013181869748
 10
1106.326958273766
 20
68.59495169726098
 10
1105.755072423214
 20
67.8353081427634
 10
1105.614512527416
 20
65.8013237682719
 10
1104.177907710067
 20
64.1342420629595
 10
1102.597986920531
 20
63.03904620819858
 10
1101.588573943353
 20
62.69005803554277
 10
1100.323534881169
 20
62.80546873429864
 10
1099.497400983806
 20
63.36598576974878
 10
1099.22317138318
 20
63.55546602143752
 10
1099.126708709593
 20
63.76492782694071
 10
1099.121196556817
 20
63.91272242325793
 10
1100.438601070377
 20
64.28341469747082
 10
1101.61957980272
 20
65.17913952363577
 10
1102.294129498732
 20
66.40972763096701
 10
1103.092702632213
 20
68.55257702279242
 10
1101.543787702045
 20
70.83977591544978
 10
1099.163226721737
 20
70.5076687106717
 10
1096.968011878536
 20
70.20036619338741
 10
1095.88556287707
 20
68.65076224412203
 10
1095.989604760725
 20
65.98046873350489
 10
1094.782443302693
 20
66.03076712758953
 10
1093.700683320325
 20
66.43246526116967
 10
1092.578960230328
 20
66.88377276973739
 10
1091.617089570846
 20
67.27237954047358
 10
1091.444834796583
 20
68.17533906715755
 10
1090.044058972281
 20
67.91385631982709
 10
1088.942317436098
 20
66.7487250267156
 10
1089.714707843891
 20
65.98322480989309
 10
1090.436799857599
 20
65.06303980578285
 10
1091.160269909502
 20
64.1452663685123
 10
1091.127196992843
 20
62.76860621260646
 10
1089.981358234449
 20
62.11817218499129
 10
1088.338736707082
 20
61.72887639515806
 10
1086.964832627564
 20
63.16685925070134
 10
1085.965754936842
 20
64.23277179383764
 10
1085.978846299686
 20
64.86839191086624
 10
1085.997449815306
 20
66.1020806041342
 10
1085.834152289305
 20
66.64571667170662
 10
1085.508935275498
 20
67.73677841188525
 10
1084.804068739216
 20
68.67349987432469
 10
1083.510090874956
 20
68.24114039092584
 10
1082.701871474116
 20
67.16627059952788
 10
1083.011241048692
 20
65.87883841669002
 10
1083.454280328095
 20
64.782264523735
 10
1083.092545302144
 20
63.65916339554354
 10
1082.557866482833
 20
62.56396754078262
 10
1081.509179417123
 20
62.00724011036625
 10
1080.290304634441
 20
61.71681856095969
 10
1078.168125815527
 20
62.00827363901183
 10
1077.290315485886
 20
64.18419594749562
 10
1077.340613879971
 20
64.47323945870808
 10
1077.474283584798
 20
65.29558375103721
 10
1077.475661622992
 20
66.13377548259851
 10
1077.477039661186
 20
66.65122882448303
 10
1077.428808324393
 20
67.21105684083612
 10
1077.262065702907
 20
67.66753199263174
 10
1076.716362578043
 20
69.15064559903179
 10
1074.492208932766
 20
69.13514266934816
 10
1074.49358697096
 20
66.58439397206918
 10
1074.49358697096
 20
65.97426756163144
 10
1074.584537491771
 20
65.36241860345106
 10
1074.72716444486
 20
64.7712402181822
 10
1073.842463924248
 20
62.95395234971291
 10
1072.021386450745
 20
62.58911673782494
 10
1070.74256700662
 20
62.83371851727768
 10
1068.864989967159
 20
63.79179957172566
 10
1068.258653161755
 20
65.8343966849303
 10
1067.993380809391
 20
67.9372829691268
 10
1069.336968048638
 20
69.7893663019971
 10
1070.469715444188
 20
71.41200627554979
 10
1071.64173692827
 20
73.66613225154875
 10
1072.986702205712
 20
76.16486000700046
 10
1073.507600643082
 20
77.18667532792556
 10
1073.612331545833
 20
80.26693520128744
 10
1073.291248646608
 20
84.06205238783866
 10
1068.623144264094
 20
82.97822534817905
 10
1067.627511668857
 20
80.9669786038902
 10
1065.249706764938
 20
77.24179685568956
 10
1064.839740402193
 20
72.23538409652448
 10
1065.258664013199
 20
67.99826115921572
 10
1064.792198084496
 20
67.12182886776816
 10
1064.088709586408
 20
66.44865720995034
 10
1063.395556374776
 20
65.75550399831808
 10
1062.756146652714
 20
65.20497773977515
 10
1062.232492138956
 20
65.05614961481236
 10
1061.859043788355
 20
64.2017659344704
 10
1062.045078944558
 20
63.85691187639689
 10
1062.099511453225
 20
63.80213485818141
 10
1062.541172694434
 20
63.5358289771716
 10
1063.901296392011
 20
63.11862791390784
 10
1064.710204811948
 20
63.94751788765895
 10
1065.576990836036
 20
64.77847491870122
 10
1065.576990836036
 20
64.77847491870122
 10
1065.95457330122
 20
65.1298746581967
 10
1065.95457330122
 20
65.1298746581967
 10
1066.850987146482
 20
63.25333114738111
 10
1068.22006809232
 20
61.09980195955144
 10
1070.426307241074
 20
60.48623045362844
 10
1071.705126685199
 20
60.27160100489738
 10
1073.254041615367
 20
60.27986923406198
 10
1074.412282717508
 20
61.00333928596444
 10
1074.412282717508
 20
61.00333928596444
 10
1076.118294001804
 20
62.09887965027389
 10
1076.118294001804
 20
62.09887965027389
 10
1077.359217395591
 20
60.63540308813976
 10
1078.970144044494
 20
59.45924748947547
 10
1081.09645697799
 20
59.65940753716848
 10
1082.498610840486
 20
59.72004121770888
 10
1083.607931586737
 20
60.71877439888281
 10
1084.503656412902
 20
61.68891328752916
 10
1084.503656412902
 20
61.68891328752916
 10
1085.018353678398
 20
62.26389972401736
 10
1085.018353678398
 20
62.26389972401736
 10
1086.398458929789
 20
60.8124809960816
 10
1088.005940483207
 20
59.45959199902399
 10
1090.411306151008
 20
59.9050428452668
 10
1091.885807018695
 20
60.09555662560111
 10
1092.670599770235
 20
60.90963268876565
 10
1093.246619735369
 20
62.19982094799171
 10
1093.518093259607
 20
62.83130695043801
 10
1093.439545082543
 20
63.51998153793945
 10
1093.371332191935
 20
64.17902830426775
 10
1094.373854978143
 20
63.92064614287401
 10
1095.413584795591
 20
63.70670571323999
 10
1096.449180498457
 20
63.66743162470814
 10
1096.803336314341
 20
62.75172524472874
 10
1097.429654673559
 20
61.68822426843212
 10
1098.352940263606
 20
61.26275497600376
 10
1100.351784664148
 20
60.34188095279648
 10
1100.464783796064
 20
60.49346515414747
 10
1102.344427892817
 20
60.59302841367119
 10
1104.743592388745
 20
61.03847925991399
 10
1106.506103238999
 20
62.91226669434138
 10
1107.849001459149
 20
64.75401474075595
 72
     1
 10
1107.849001459149
 20
64.75401474075595
 11
1107.849001459149
 21
64.75401474075595
 97
        0
 92
        1
 93
        2
 72
     4
 94
        3
 73
     0
 74
     0
 95
       53
 96
       49
 40
0.0
 40
0.0
 40
0.0
 40
0.0
 40
0.3527777776895833
 40
0.3527777776895833
 40
0.3527777776895833
 40
0.7055555553791667
 40
0.7055555553791667
 40
0.7055555553791667
 40
1.05833333306875
 40
1.05833333306875
 40
1.05833333306875
 40
1.411111110758333
 40
1.411111110758333
 40
1.411111110758333
 40
1.763888888447917
 40
1.763888888447917
 40
1.763888888447917
 40
2.1166666661375
 40
2.1166666661375
 40
2.1166666661375
 40
2.469444443827083
 40
2.469444443827083
 40
2.469444443827083
 40
2.822222221516667
 40
2.822222221516667
 40
2.822222221516667
 40
3.17499999920625
 40
3.17499999920625
 40
3.17499999920625
 40
3.527777776895833
 40
3.527777776895833
 40
3.527777776895833
 40
3.880555554585417
 40
3.880555554585417
 40
3.880555554585417
 40
4.233333332275
 40
4.233333332275
 40
4.233333332275
 40
4.586111109964584
 40
4.586111109964584
 40
4.586111109964584
 40
4.938888887654167
 40
4.938888887654167
 40
4.938888887654167
 40
5.29166666534375
 40
5.29166666534375
 40
5.29166666534375
 40
5.644444443033334
 40
5.644444443033334
 40
5.644444443033334
 40
5.644444443033334
 10
1049.276866057125
 20
78.11960718533122
 10
1049.276866057125
 20
78.11960718533122
 10
1048.767680944405
 20
78.59055173816486
 10
1048.767680944405
 20
78.59055173816486
 10
1048.767680944405
 20
78.59055173816486
 10
1049.258262541505
 20
78.82757430755005
 10
1049.258262541505
 20
78.82757430755005
 10
1050.029274911104
 20
79.074932163391
 10
1050.865744094923
 20
79.13659937257697
 10
1051.257795961144
 20
78.24156356550905
 10
1051.353569615634
 20
77.45642630442062
 10
1051.026285544535
 20
76.98238116565024
 10
1050.470247133216
 20
76.49317760674477
 10
1049.27342096164
 20
76.38431258941087
 10
1048.471402732674
 20
75.28153752458239
 10
1047.731396222442
 20
74.45505911767096
 10
1046.877701561197
 20
72.44277884473654
 10
1047.580501040188
 20
70.02501083318819
 10
1047.998735632098
 20
67.99826115921572
 10
1047.998735632098
 20
67.99826115921572
 10
1048.254361717103
 20
67.74952526518068
 10
1048.254361717103
 20
67.74952526518068
 10
1048.715315493029
 20
67.29305011338508
 10
1049.090141881825
 20
66.80729164996485
 10
1049.057068965166
 20
66.1103488332988
 10
1048.618163800345
 20
64.93040362960073
 10
1046.276187889473
 20
64.35645072175811
 10
1046.02676297634
 20
66.24022893309272
 10
1045.603016231655
 20
66.98781465339194
 10
1045.432828514683
 20
67.5304171923188
 10
1045.32396349735
 20
68.08404403679843
 10
1045.32396349735
 20
68.08404403679843
 10
1045.247482377577
 20
68.52088214432811
 10
1045.247482377577
 20
68.52088214432811
 10
1045.103477386294
 20
67.42947589460097
 10
1045.278488236944
 20
66.1585801700923
 10
1045.461078297663
 20
65.08612194553403
 10
1045.837282724652
 20
63.66605358651405
 10
1046.817067880657
 20
62.5815375277574
 10
1048.221288800445
 20
62.01137422494855
 10
1051.439697002765
 20
61.24828557496571
 10
1054.094487583699
 20
63.44694551365215
 10
1055.930723477337
 20
65.82578394621717
 10
1058.822536627656
 20
69.95541990438615
 10
1061.390510802361
 20
75.13305390916813
 10
1059.054047044264
 20
80.13567706329941
 10
1056.265586758503
 20
83.62486977076045
 10
1050.795464147023
 20
82.00429685449893
 10
1049.276866057125
 20
78.11960718533122
 72
     1
 10
1049.276866057125
 20
78.11960718533122
 11
1049.276866057125
 21
78.11960718533122
 97
        0
 92
        1
 93
        2
 72
     4
 94
        3
 73
     0
 74
     0
 95
       23
 96
       19
 40
0.0
 40
0.0
 40
0.0
 40
0.0
 40
0.3527777776895833
 40
0.3527777776895833
 40
0.3527777776895833
 40
0.7055555553791667
 40
0.7055555553791667
 40
0.7055555553791667
 40
1.05833333306875
 40
1.05833333306875
 40
1.05833333306875
 40
1.411111110758333
 40
1.411111110758333
 40
1.411111110758333
 40
1.763888888447917
 40
1.763888888447917
 40
1.763888888447917
 40
2.1166666661375
 40
2.1166666661375
 40
2.1166666661375
 40
2.1166666661375
 10
1057.936458068849
 20
64.11908364282439
 10
1055.671652296846
 20
61.04364690314187
 10
1051.981955032144
 20
58.99415959896674
 10
1048.03318658695
 20
59.55019801028607
 10
1045.249549434868
 20
60.29158255871183
 10
1043.447764496083
 20
62.99598251463295
 10
1042.987499739253
 20
65.65559622924583
 10
1042.426638194255
 20
69.13238659295996
 10
1043.369216319019
 20
72.29877385345308
 10
1045.205452212657
 20
74.91601289359738
 10
1045.7559784712
 20
78.71767576157059
 10
1047.918120397743
 20
82.36844344728983
 10
1051.691188973188
 20
84.04654945815503
 10
1054.043500170517
 20
84.90472274353077
 10
1059.310362148367
 20
85.28264971826268
 10
1061.094921609726
 20
81.42517630342843
 10
1064.334689404055
 20
75.45034720335964
 10
1061.085964361465
 20
68.8901963803469
 10
1057.936458068849
 20
64.11908364282439
 72
     1
 10
1057.936458068849
 20
64.11908364282439
 11
1057.936458068849
 21
64.11908364282439
 97
        0
 92
        1
 93
        2
 72
     4
 94
        3
 73
     0
 74
     0
 95
       17
 96
       13
 40
0.0
 40
0.0
 40
0.0
 40
0.0
 40
0.3527777776895833
 40
0.3527777776895833
 40
0.3527777776895833
 40
0.7055555553791667
 40
0.7055555553791667
 40
0.7055555553791667
 40
1.05833333306875
 40
1.05833333306875
 40
1.05833333306875
 40
1.411111110758333
 40
1.411111110758333
 40
1.411111110758333
 40
1.411111110758333
 10
1120.519373634801
 20
71.15913626693244
 10
1120.672335874346
 20
71.62422415744118
 10
1120.622726499358
 20
72.24330781614057
 10
1120.34436278415
 20
72.67153318495713
 10
1119.742160093328
 20
73.42945419171208
 10
1118.581851933896
 20
73.96792261605664
 10
1117.861826977479
 20
72.97470158765911
 10
1117.499402932431
 20
72.08827851930432
 10
1117.770876456668
 20
71.20598956553184
 10
1118.482633183921
 20
70.59758570283672
 10
1119.239176152482
 20
70.41637368031257
 10
1120.101139042891
 20
70.23516165778844
 10
1120.519373634801
 20
71.15913626693244
 72
     1
 10
1120.519373634801
 20
71.15913626693244
 11
1120.519373634801
 21
71.15913626693244
 97
        0
 92
        1
 93
        2
 72
     4
 94
        3
 73
     0
 74
     0
 95
       17
 96
       13
 40
0.0
 40
0.0
 40
0.0
 40
0.0
 40
0.3527777776895833
 40
0.3527777776895833
 40
0.3527777776895833
 40
0.7055555553791667
 40
0.7055555553791667
 40
0.7055555553791667
 40
1.05833333306875
 40
1.05833333306875
 40
1.05833333306875
 40
1.411111110758333
 40
1.411111110758333
 40
1.411111110758333
 40
1.411111110758333
 10
1077.080853680383
 20
72.5788601164039
 10
1076.691557890549
 20
72.02075464779342
 10
1075.730376250165
 20
72.01937660959932
 10
1075.233593481192
 20
72.22229273368055
 10
1074.514946562969
 20
72.5154703594753
 10
1073.832128637792
 20
73.46356063701606
 10
1074.358539227938
 20
74.38030054564103
 10
1074.946272517722
 20
75.40349390476024
 10
1076.1658363195
 20
75.12237411316386
 10
1076.795599774204
 20
74.60939939541015
 10
1077.190407716814
 20
74.28831649618486
 10
1077.606575251432
 20
73.33057995128542
 10
1077.080853680383
 20
72.5788601164039
 72
     1
 10
1077.080853680383
 20
72.5788601164039
 11
1077.080853680383
 21
72.5788601164039
 97
        0
 75
     2
 76
     1
 98
        0
  0
SPLINE
  5
56B
330
55D
100
AcDbEntity
  8
Layer 1
370
     0
100
AcDbSpline
210
0.0
220
0.0
230
1.0
 70
    11
 71
     3
 72
    20
 73
    16
 74
     0
 42
0.0000000001
 43
0.0000000001
 40
0.0
 40
0.0
 40
0.0
 40
0.0
 40
1.0
 40
1.0
 40
1.0
 40
2.0
 40
2.0
 40
2.0
 40
3.0
 40
3.0
 40
3.0
 40
4.0
 40
4.0
 40
4.0
 40
5.0
 40
5.0
 40
5.0
 40
5.0
 10
1144.883777925585
 20
68.12607420171848
 30
0.0
 10
1144.883777925585
 20
68.12607420171848
 30
0.0
 10
1145.179367118219
 20
68.12607420171848
 30
0.0
 10
1145.179367118219
 20
68.12607420171848
 30
0.0
 10
1145.337841510541
 20
68.12607420171848
 30
0.0
 10
1145.493559826474
 20
68.07646482673088
 30
0.0
 10
1145.493559826474
 20
67.90317652382282
 30
0.0
 10
1145.493559826474
 20
67.70405000477538
 30
0.0
 10
1145.370225408102
 20
67.664431406695
 30
0.0
 10
1145.179367118219
 20
67.664431406695
 30
0.0
 10
1145.179367118219
 20
67.664431406695
 30
0.0
 10
1144.883777925585
 20
67.664431406695
 30
0.0
 10
1144.883777925585
 20
67.664431406695
 30
0.0
 10
1144.883777925585
 20
67.664431406695
 30
0.0
 10
1144.883777925585
 20
68.12607420171848
 30
0.0
 10
1144.883777925585
 20
68.12607420171848
 30
0.0
  0
SPLINE
  5
56C
330
55D
100
AcDbEntity
  8
Layer 1
370
     0
100
AcDbSpline
210
0.0
220
0.0
230
1.0
 70
    11
 71
     3
 72
    35
 73
    31
 74
     0
 42
0.0000000001
 43
0.0000000001
 40
0.0
 40
0.0
 40
0.0
 40
0.0
 40
1.0
 40
1.0
 40
1.0
 40
2.0
 40
2.0
 40
2.0
 40
3.0
 40
3.0
 40
3.0
 40
4.0
 40
4.0
 40
4.0
 40
5.0
 40
5.0
 40
5.0
 40
6.0
 40
6.0
 40
6.0
 40
7.0
 40
7.0
 40
7.0
 40
8.0
 40
8.0
 40
8.0
 40
9.0
 40
9.0
 40
9.0
 40
10.0
 40
10.0
 40
10.0
 40
10.0
 10
1144.633663993355
 20
66.79454479666943
 30
0.0
 10
1144.633663993355
 20
66.79454479666943
 30
0.0
 10
1144.883777925585
 20
66.79454479666943
 30
0.0
 10
1144.883777925585
 20
66.79454479666943
 30
0.0
 10
1144.883777925585
 20
66.79454479666943
 30
0.0
 10
1144.883777925585
 20
67.46943900222986
 30
0.0
 10
1144.883777925585
 20
67.46943900222986
 30
0.0
 10
1144.883777925585
 20
67.46943900222986
 30
0.0
 10
1145.091861692894
 20
67.46943900222986
 30
0.0
 10
1145.091861692894
 20
67.46943900222986
 30
0.0
 10
1145.091861692894
 20
67.46943900222986
 30
0.0
 10
1145.518364513968
 20
66.79454479666943
 30
0.0
 10
1145.518364513968
 20
66.79454479666943
 30
0.0
 10
1145.518364513968
 20
66.79454479666943
 30
0.0
 10
1145.782258828138
 20
66.79454479666943
 30
0.0
 10
1145.782258828138
 20
66.79454479666943
 30
0.0
 10
1145.782258828138
 20
66.79454479666943
 30
0.0
 10
1145.348865816093
 20
67.46943900222986
 30
0.0
 10
1145.348865816093
 20
67.46943900222986
 30
0.0
 10
1145.587266423673
 20
67.46943900222986
 30
0.0
 10
1145.742984739606
 20
67.64686141972024
 30
0.0
 10
1145.742984739606
 20
67.8918077087215
 30
0.0
 10
1145.742984739606
 20
68.1801622008369
 30
0.0
 10
1145.568662908052
 20
68.32106660618362
 30
0.0
 10
1145.218641206751
 20
68.32106660618362
 30
0.0
 10
1145.218641206751
 20
68.32106660618362
 30
0.0
 10
1144.633663993355
 20
68.32106660618362
 30
0.0
 10
1144.633663993355
 20
68.32106660618362
 30
0.0
 10
1144.633663993355
 20
68.32106660618362
 30
0.0
 10
1144.633663993355
 20
66.79454479666943
 30
0.0
 10
1144.633663993355
 20
66.79454479666943
 30
0.0
  0
SPLINE
  5
56D
330
55D
100
AcDbEntity
  8
Layer 1
370
     0
100
AcDbSpline
210
0.0
220
0.0
230
1.0
 70
    11
 71
     3
 72
    17
 73
    13
 74
     0
 42
0.0000000001
 43
0.0000000001
 40
0.0
 40
0.0
 40
0.0
 40
0.0
 40
1.0
 40
1.0
 40
1.0
 40
2.0
 40
2.0
 40
2.0
 40
3.0
 40
3.0
 40
3.0
 40
4.0
 40
4.0
 40
4.0
 40
4.0
 10
1144.078314601133
 20
67.55625540845816
 30
0.0
 10
1144.078314601133
 20
68.1801622008369
 30
0.0
 10
1144.530311128798
 20
68.66454262606304
 30
0.0
 10
1145.135958915105
 20
68.66454262606304
 30
0.0
 10
1145.734716510441
 20
68.66454262606304
 30
0.0
 10
1146.185334999912
 20
68.1801622008369
 30
0.0
 10
1146.185334999912
 20
67.55625540845816
 30
0.0
 10
1146.185334999912
 20
66.93234861607941
 30
0.0
 10
1145.734716510441
 20
66.44865720995034
 30
0.0
 10
1145.135958915105
 20
66.44865720995034
 30
0.0
 10
1144.530311128798
 20
66.44865720995034
 30
0.0
 10
1144.078314601133
 20
66.93234861607941
 30
0.0
 10
1144.078314601133
 20
67.55625540845816
 30
0.0
  0
SPLINE
  5
56E
330
55D
100
AcDbEntity
  8
Layer 1
370
     0
100
AcDbSpline
210
0.0
220
0.0
230
1.0
 70
    11
 71
     3
 72
    17
 73
    13
 74
     0
 42
0.0000000001
 43
0.0000000001
 40
0.0
 40
0.0
 40
0.0
 40
0.0
 40
1.0
 40
1.0
 40
1.0
 40
2.0
 40
2.0
 40
2.0
 40
3.0
 40
3.0
 40
3.0
 40
4.0
 40
4.0
 40
4.0
 40
4.0
 10
1143.829578707098
 20
67.55625540845816
 30
0.0
 10
1143.829578707098
 20
66.83864201888062
 30
0.0
 10
1144.413866901397
 20
66.25297578638815
 30
0.0
 10
1145.13251381962
 20
66.25297578638815
 30
0.0
 10
1145.850471718746
 20
66.25297578638815
 30
0.0
 10
1146.434759913044
 20
66.83864201888062
 30
0.0
 10
1146.434759913044
 20
67.55625540845816
 30
0.0
 10
1146.434759913044
 20
68.27455781713276
 30
0.0
 10
1145.850471718746
 20
68.85953503052818
 30
0.0
 10
1145.13251381962
 20
68.85953503052818
 30
0.0
 10
1144.413866901397
 20
68.85953503052818
 30
0.0
 10
1143.829578707098
 20
68.27455781713276
 30
0.0
 10
1143.829578707098
 20
67.55625540845816
 30
0.0
  0
HATCH
  5
56F
330
55D
100
AcDbEntity
  8
Layer 1
 62
   152
100
AcDbHatch
 10
0.0
 20
0.0
 30
0.0
210
0.0
220
0.0
230
1.0
  2
SOLID
 70
     1
 71
     0
 91
        4
 92
        1
 93
        1
 72
     4
 94
        3
 73
     0
 74
     1
 95
       20
 96
       16
 40
0.0
 40
0.0
 40
0.0
 40
0.0
 40
1.0
 40
1.0
 40
1.0
 40
2.0
 40
2.0
 40
2.0
 40
3.0
 40
3.0
 40
3.0
 40
4.0
 40
4.0
 40
4.0
 40
5.0
 40
5.0
 40
5.0
 40
5.0
 10
1144.883777925585
 20
68.12607420171848
 10
1144.883777925585
 20
68.12607420171848
 10
1145.179367118219
 20
68.12607420171848
 10
1145.179367118219
 20
68.12607420171848
 10
1145.337841510541
 20
68.12607420171848
 10
1145.493559826474
 20
68.07646482673088
 10
1145.493559826474
 20
67.90317652382282
 10
1145.493559826474
 20
67.70405000477538
 10
1145.370225408102
 20
67.664431406695
 10
1145.179367118219
 20
67.664431406695
 10
1145.179367118219
 20
67.664431406695
 10
1144.883777925585
 20
67.664431406695
 10
1144.883777925585
 20
67.664431406695
 10
1144.883777925585
 20
67.664431406695
 10
1144.883777925585
 20
68.12607420171848
 10
1144.883777925585
 20
68.12607420171848
 97
        0
 92
        1
 93
        1
 72
     4
 94
        3
 73
     0
 74
     1
 95
       35
 96
       31
 40
0.0
 40
0.0
 40
0.0
 40
0.0
 40
1.0
 40
1.0
 40
1.0
 40
2.0
 40
2.0
 40
2.0
 40
3.0
 40
3.0
 40
3.0
 40
4.0
 40
4.0
 40
4.0
 40
5.0
 40
5.0
 40
5.0
 40
6.0
 40
6.0
 40
6.0
 40
7.0
 40
7.0
 40
7.0
 40
8.0
 40
8.0
 40
8.0
 40
9.0
 40
9.0
 40
9.0
 40
10.0
 40
10.0
 40
10.0
 40
10.0
 10
1144.633663993355
 20
66.79454479666943
 10
1144.633663993355
 20
66.79454479666943
 10
1144.883777925585
 20
66.79454479666943
 10
1144.883777925585
 20
66.79454479666943
 10
1144.883777925585
 20
66.79454479666943
 10
1144.883777925585
 20
67.46943900222986
 10
1144.883777925585
 20
67.46943900222986
 10
1144.883777925585
 20
67.46943900222986
 10
1145.091861692894
 20
67.46943900222986
 10
1145.091861692894
 20
67.46943900222986
 10
1145.091861692894
 20
67.46943900222986
 10
1145.518364513968
 20
66.79454479666943
 10
1145.518364513968
 20
66.79454479666943
 10
1145.518364513968
 20
66.79454479666943
 10
1145.782258828138
 20
66.79454479666943
 10
1145.782258828138
 20
66.79454479666943
 10
1145.782258828138
 20
66.79454479666943
 10
1145.348865816093
 20
67.46943900222986
 10
1145.348865816093
 20
67.46943900222986
 10
1145.587266423673
 20
67.46943900222986
 10
1145.742984739606
 20
67.64686141972024
 10
1145.742984739606
 20
67.8918077087215
 10
1145.742984739606
 20
68.1801622008369
 10
1145.568662908052
 20
68.32106660618362
 10
1145.218641206751
 20
68.32106660618362
 10
1145.218641206751
 20
68.32106660618362
 10
1144.633663993355
 20
68.32106660618362
 10
1144.633663993355
 20
68.32106660618362
 10
1144.633663993355
 20
68.32106660618362
 10
1144.633663993355
 20
66.79454479666943
 10
1144.633663993355
 20
66.79454479666943
 97
        0
 92
        1
 93
        2
 72
     4
 94
        3
 73
     0
 74
     0
 95
       17
 96
       13
 40
0.0
 40
0.0
 40
0.0
 40
0.0
 40
0.3527777776895833
 40
0.3527777776895833
 40
0.3527777776895833
 40
0.7055555553791667
 40
0.7055555553791667
 40
0.7055555553791667
 40
1.05833333306875
 40
1.05833333306875
 40
1.05833333306875
 40
1.411111110758333
 40
1.411111110758333
 40
1.411111110758333
 40
1.411111110758333
 10
1144.078314601133
 20
67.55625540845816
 10
1144.078314601133
 20
68.1801622008369
 10
1144.530311128798
 20
68.66454262606304
 10
1145.135958915105
 20
68.66454262606304
 10
1145.734716510441
 20
68.66454262606304
 10
1146.185334999912
 20
68.1801622008369
 10
1146.185334999912
 20
67.55625540845816
 10
1146.185334999912
 20
66.93234861607941
 10
1145.734716510441
 20
66.44865720995034
 10
1145.135958915105
 20
66.44865720995034
 10
1144.530311128798
 20
66.44865720995034
 10
1144.078314601133
 20
66.93234861607941
 10
1144.078314601133
 20
67.55625540845816
 72
     1
 10
1144.078314601133
 20
67.55625540845816
 11
1144.078314601133
 21
67.55625540845816
 97
        0
 92
        1
 93
        2
 72
     4
 94
        3
 73
     0
 74
     0
 95
       17
 96
       13
 40
0.0
 40
0.0
 40
0.0
 40
0.0
 40
0.3527777776895833
 40
0.3527777776895833
 40
0.3527777776895833
 40
0.7055555553791667
 40
0.7055555553791667
 40
0.7055555553791667
 40
1.05833333306875
 40
1.05833333306875
 40
1.05833333306875
 40
1.411111110758333
 40
1.411111110758333
 40
1.411111110758333
 40
1.411111110758333
 10
1143.829578707098
 20
67.55625540845816
 10
1143.829578707098
 20
66.83864201888062
 10
1144.413866901397
 20
66.25297578638815
 10
1145.13251381962
 20
66.25297578638815
 10
1145.850471718746
 20
66.25297578638815
 10
1146.434759913044
 20
66.83864201888062
 10
1146.434759913044
 20
67.55625540845816
 10
1146.434759913044
 20
68.27455781713276
 10
1145.850471718746
 20
68.85953503052818
 10
1145.13251381962
 20
68.85953503052818
 10
1144.413866901397
 20
68.85953503052818
 10
1143.829578707098
 20
68.27455781713276
 10
1143.829578707098
 20
67.55625540845816
 72
     1
 10
1143.829578707098
 20
67.55625540845816
 11
1143.829578707098
 21
67.55625540845816
 97
        0
 75
     2
 76
     1
 98
        0
  0
ENDBLK
  5
560
330
55D
100
AcDbEntity
  8
0
100
AcDbBlockEnd
  0
ENDSEC
  0
SECTION
  2
ENTITIES
  0
INSERT
  5
3D
330
1F
100
AcDbEntity
  8
Layer 1
100
AcDbBlockReference
  2
block 2
 10
0.0
 20
0.0
 30
0.0
  0
MTEXT
  5
55C
330
1F
100
AcDbEntity
  8
Layer 1
 62
     7
100
AcDbMText
 10
992.2067922866705
 20
42.15832247209931
 30
0.0
 40
9.595555553156668
 41
0.0
 71
     7
 72
     1
  1
\fFrutiger LT Std 55 Roman|b0|i0|c0|p34;\W1;CAD Drawing: PR1180U
 73
     1
 44
1.0
  0
INSERT
  5
55E
330
1F
100
AcDbEntity
  8
Layer 1
100
AcDbBlockReference
  2
block 3
 10
0.0
 20
0.0
 30
0.0
  0
ENDSEC
  0
SECTION
  2
OBJECTS
  0
DICTIONARY
  5
C
330
0
100
AcDbDictionary
281
     1
  3
ACAD_GROUP
350
D
  3
ACAD_LAYOUT
350
1A
  3
ACAD_MLINESTYLE
350
17
  3
ACAD_PLOTSETTINGS
350
19
  3
ACAD_PLOTSTYLENAME
350
E
  3
ACAD_TABLESTYLE
350
570
  3
ACAD_VISUALSTYLE
350
2A
  0
DICTIONARY
  5
D
102
{ACAD_REACTORS
330
C
102
}
330
C
100
AcDbDictionary
281
     1
  0
DICTIONARY
  5
1A
102
{ACAD_REACTORS
330
C
102
}
330
C
100
AcDbDictionary
281
     1
  3
Layout1
350
1E
  3
Layout2
350
26
  3
Model
350
22
  0
DICTIONARY
  5
17
102
{ACAD_REACTORS
330
C
102
}
330
C
100
AcDbDictionary
281
     1
  3
Standard
350
18
  0
DICTIONARY
  5
19
102
{ACAD_REACTORS
330
C
102
}
330
C
100
AcDbDictionary
281
     1
  0
ACDBDICTIONARYWDFLT
  5
E
102
{ACAD_REACTORS
330
C
102
}
330
C
100
AcDbDictionary
281
     1
  3
Normal
350
F
100
AcDbDictionaryWithDefault
340
F
  0
DICTIONARY
  5
570
102
{ACAD_REACTORS
330
C
102
}
330
C
100
AcDbDictionary
281
     1
  0
DICTIONARY
  5
2A
102
{ACAD_REACTORS
330
C
102
}
330
C
100
AcDbDictionary
281
     1
  3
2dWireframe
350
2F
  3
3D Hidden
350
31
  3
3dWireframe
350
30
  3
Basic
350
32
  3
Brighten
350
36
  3
ColorChange
350
3A
  3
Conceptual
350
34
  3
Dim
350
35
  3
Facepattern
350
39
  3
Flat
350
2B
  3
FlatWithEdges
350
2C
  3
Gouraud
350
2D
  3
GouraudWithEdges
350
2E
  3
Linepattern
350
38
  3
Realistic
350
33
  3
Thicken
350
37
  0
LAYOUT
  5
1E
102
{ACAD_REACTORS
330
1A
102
}
330
1A
100
AcDbPlotSettings
  1

  2
none_device
  4

  6

 40
0.0
 41
0.0
 42
0.0
 43
0.0
 44
0.0
 45
0.0
 46
0.0
 47
0.0
 48
0.0
 49
0.0
140
0.0
141
0.0
142
1.0
143
1.0
 70
   688
 72
     0
 73
     0
 74
     5
  7

 75
    16
147
1.0
148
0.0
149
0.0
100
AcDbLayout
  1
Layout1
 70
     1
 71
     1
 10
0.0
 20
0.0
 11
12.0
 21
9.0
 12
0.0
 22
0.0
 32
0.0
 14
1.000000000000000E+20
 24
1.000000000000000E+20
 34
1.000000000000000E+20
 15
-1.000000000000000E+20
 25
-1.000000000000000E+20
 35
-1.000000000000000E+20
146
0.0
 13
0.0
 23
0.0
 33
0.0
 16
1.0
 26
0.0
 36
0.0
 17
0.0
 27
1.0
 37
0.0
 76
     0
330
1B
  0
LAYOUT
  5
26
102
{ACAD_REACTORS
330
1A
102
}
330
1A
100
AcDbPlotSettings
  1

  2
none_device
  4

  6

 40
0.0
 41
0.0
 42
0.0
 43
0.0
 44
0.0
 45
0.0
 46
0.0
 47
0.0
 48
0.0
 49
0.0
140
0.0
141
0.0
142
1.0
143
1.0
 70
   688
 72
     0
 73
     0
 74
     5
  7

 75
    16
147
1.0
148
0.0
149
0.0
100
AcDbLayout
  1
Layout2
 70
     1
 71
     2
 10
0.0
 20
0.0
 11
0.0
 21
0.0
 12
0.0
 22
0.0
 32
0.0
 14
0.0
 24
0.0
 34
0.0
 15
0.0
 25
0.0
 35
0.0
146
0.0
 13
0.0
 23
0.0
 33
0.0
 16
1.0
 26
0.0
 36
0.0
 17
0.0
 27
1.0
 37
0.0
 76
     0
330
23
  0
LAYOUT
  5
22
102
{ACAD_REACTORS
330
1A
102
}
330
1A
100
AcDbPlotSettings
  1

  2
none_device
  4

  6

 40
0.0
 41
0.0
 42
0.0
 43
0.0
 44
0.0
 45
0.0
 46
0.0
 47
0.0
 48
0.0
 49
0.0
140
0.0
141
0.0
142
1.0
143
1.0
 70
  1712
 72
     0
 73
     0
 74
     0
  7

 75
     0
147
1.0
148
0.0
149
0.0
100
AcDbLayout
  1
Model
 70
     1
 71
     0
 10
0.0
 20
0.0
 11
12.0
 21
9.0
 12
0.0
 22
0.0
 32
0.0
 14
1.000000000000000E+20
 24
1.000000000000000E+20
 34
1.000000000000000E+20
 15
-1.000000000000000E+20
 25
-1.000000000000000E+20
 35
-1.000000000000000E+20
146
0.0
 13
0.0
 23
0.0
 33
0.0
 16
1.0
 26
0.0
 36
0.0
 17
0.0
 27
1.0
 37
0.0
 76
     0
330
1F
331
29
  0
MLINESTYLE
  5
18
102
{ACAD_REACTORS
330
17
102
}
330
17
100
AcDbMlineStyle
  2
Standard
 70
     0
  3

 62
   256
 51
90.0
 52
90.0
 71
     2
 49
0.5
 62
   256
  6
BYLAYER
 49
-0.5
 62
   256
  6
BYLAYER
  0
ACDBPLACEHOLDER
  5
F
102
{ACAD_REACTORS
330
E
102
}
330
E
  0
VISUALSTYLE
  5
2F
102
{ACAD_REACTORS
330
2A
102
}
330
2A
100
AcDbVisualStyle
  2
2dWireframe
 70
     4
 71
     0
 72
     2
 73
     0
 90
        0
 40
-0.6
 41
-30.0
 62
     5
 63
     7
 74
     1
 91
        4
 64
     7
 65
   257
 75
     1
175
     1
 42
1.0
 92
        0
 66
   257
 43
1.0
 76
     1
 77
     6
 78
     2
 67
     7
 79
     5
170
     0
171
     0
290
     0
174
     0
 93
        1
 44
0.0
173
     0
291
     0
 45
0.0
1001
ACAD
1000
AcDbSavedByObjectVersion
1070
     0
  0
VISUALSTYLE
  5
31
102
{ACAD_REACTORS
330
2A
102
}
330
2A
100
AcDbVisualStyle
  2
3D Hidden
 70
     6
 71
     1
 72
     2
 73
     2
 90
        0
 40
-0.6
 41
-30.0
 62
     5
 63
     7
 74
     2
 91
        2
 64
     7
 65
   257
 75
     2
175
     1
 42
40.0
 92
        0
 66
   257
 43
1.0
 76
     1
 77
     6
 78
     2
 67
     7
 79
     3
170
     0
171
     0
290
     0
174
     0
 93
        1
 44
0.0
173
     0
291
     0
 45
0.0
1001
ACAD
1000
AcDbSavedByObjectVersion
1070
     0
  0
VISUALSTYLE
  5
30
102
{ACAD_REACTORS
330
2A
102
}
330
2A
100
AcDbVisualStyle
  2
3dWireframe
 70
     5
 71
     0
 72
     2
 73
     0
 90
        0
 40
-0.6
 41
-30.0
 62
     5
 63
     7
 74
     1
 91
        4
 64
     7
 65
   257
 75
     1
175
     1
 42
1.0
 92
        0
 66
   257
 43
1.0
 76
     1
 77
     6
 78
     2
 67
     7
 79
     5
170
     0
171
     0
290
     0
174
     0
 93
        1
 44
0.0
173
     0
291
     0
 45
0.0
1001
ACAD
1000
AcDbSavedByObjectVersion
1070
     0
  0
VISUALSTYLE
  5
32
102
{ACAD_REACTORS
330
2A
102
}
330
2A
100
AcDbVisualStyle
  2
Basic
 70
     7
 71
     1
 72
     0
 73
     1
 90
        0
 40
-0.6
 41
-30.0
 62
     5
 63
     7
 74
     0
 91
        4
 64
     7
 65
   257
 75
     1
175
     1
 42
1.0
 92
        8
 66
     7
 43
1.0
 76
     1
 77
     6
 78
     2
 67
     7
 79
     5
170
     0
171
     0
290
     0
174
     0
 93
        1
 44
0.0
173
     0
291
     1
 45
0.0
1001
ACAD
1000
AcDbSavedByObjectVersion
1070
     0
  0
VISUALSTYLE
  5
36
102
{ACAD_REACTORS
330
2A
102
}
330
2A
100
AcDbVisualStyle
  2
Brighten
 70
    12
 71
     2
 72
     2
 73
     0
 90
        0
 40
-0.6
 41
-30.0
 62
     5
 63
     7
 74
     1
 91
        4
 64
     7
 65
   257
 75
     1
175
     1
 42
1.0
 92
        8
 66
     7
 43
1.0
 76
     1
 77
     6
 78
     2
 67
     7
 79
     5
170
     0
171
     0
290
     0
174
     0
 93
        1
 44
50.0
173
     0
291
     1
 45
0.0
1001
ACAD
1000
AcDbSavedByObjectVersion
1070
     0
  0
VISUALSTYLE
  5
3A
102
{ACAD_REACTORS
330
2A
102
}
330
2A
100
AcDbVisualStyle
  2
ColorChange
 70
    16
 71
     2
 72
     2
 73
     3
 90
        0
 40
-0.6
 41
-30.0
 62
     5
 63
     8
 74
     1
 91
        4
 64
     7
 65
   257
 75
     1
175
     1
 42
1.0
 92
        8
 66
     8
 43
1.0
 76
     1
 77
     6
 78
     2
 67
     7
 79
     5
170
     0
171
     0
290
     0
174
     0
 93
        1
 44
0.0
173
     0
291
     1
 45
0.0
1001
ACAD
1000
AcDbSavedByObjectVersion
1070
     0
  0
VISUALSTYLE
  5
34
102
{ACAD_REACTORS
330
2A
102
}
330
2A
100
AcDbVisualStyle
  2
Conceptual
 70
     9
 71
     3
 72
     2
 73
     0
 90
        0
 40
-0.6
 41
-30.0
 62
     5
 63
     7
 74
     2
 91
        2
 64
     7
 65
   257
 75
     1
175
     1
 42
40.0
 92
        8
 66
     7
 43
1.0
 76
     1
 77
     6
 78
     2
 67
     7
 79
     3
170
     0
171
     0
290
     0
174
     0
 93
        1
 44
0.0
173
     0
291
     0
 45
0.0
1001
ACAD
1000
AcDbSavedByObjectVersion
1070
     0
  0
VISUALSTYLE
  5
35
102
{ACAD_REACTORS
330
2A
102
}
330
2A
100
AcDbVisualStyle
  2
Dim
 70
    11
 71
     2
 72
     2
 73
     0
 90
        0
 40
-0.6
 41
-30.0
 62
     5
 63
     7
 74
     1
 91
        4
 64
     7
 65
   257
 75
     1
175
     1
 42
1.0
 92
        8
 66
     7
 43
1.0
 76
     1
 77
     6
 78
     2
 67
     7
 79
     5
170
     0
171
     0
290
     0
174
     0
 93
        1
 44
-50.0
173
     0
291
     1
 45
0.0
1001
ACAD
1000
AcDbSavedByObjectVersion
1070
     0
  0
VISUALSTYLE
  5
39
102
{ACAD_REACTORS
330
2A
102
}
330
2A
100
AcDbVisualStyle
  2
Facepattern
 70
    15
 71
     2
 72
     2
 73
     0
 90
        0
 40
-0.6
 41
-30.0
 62
     5
 63
     7
 74
     1
 91
        4
 64
     7
 65
   257
 75
     1
175
     1
 42
1.0
 92
        8
 66
     7
 43
1.0
 76
     1
 77
     6
 78
     2
 67
     7
 79
     5
170
     0
171
     0
290
     0
174
     0
 93
        1
 44
0.0
173
     0
291
     1
 45
0.0
1001
ACAD
1000
AcDbSavedByObjectVersion
1070
     0
  0
VISUALSTYLE
  5
2B
102
{ACAD_REACTORS
330
2A
102
}
330
2A
100
AcDbVisualStyle
  2
Flat
 70
     0
 71
     2
 72
     1
 73
     1
 90
        2
 40
-0.6
 41
30.0
 62
     5
 63
     7
 74
     0
 91
        4
 64
     7
 65
   257
 75
     1
175
     1
 42
1.0
 92
        8
 66
     7
 43
1.0
 76
     1
 77
     6
 78
     2
 67
     7
 79
     5
170
     0
171
     0
290
     0
174
     0
 93
       13
 44
0.0
173
     0
291
     1
 45
0.0
1001
ACAD
1000
AcDbSavedByObjectVersion
1070
     0
  0
VISUALSTYLE
  5
2C
102
{ACAD_REACTORS
330
2A
102
}
330
2A
100
AcDbVisualStyle
  2
FlatWithEdges
 70
     1
 71
     2
 72
     1
 73
     1
 90
        2
 40
-0.6
 41
30.0
 62
     5
 63
     7
 74
     1
 91
        4
 64
     7
 65
   257
 75
     1
175
     1
 42
1.0
 92
        0
 66
   257
 43
1.0
 76
     1
 77
     6
 78
     2
 67
     7
 79
     5
170
     0
171
     0
290
     0
174
     0
 93
       13
 44
0.0
173
     0
291
     1
 45
0.0
1001
ACAD
1000
AcDbSavedByObjectVersion
1070
     0
  0
VISUALSTYLE
  5
2D
102
{ACAD_REACTORS
330
2A
102
}
330
2A
100
AcDbVisualStyle
  2
Gouraud
 70
     2
 71
     2
 72
     2
 73
     1
 90
        2
 40
-0.6
 41
30.0
 62
     5
 63
     7
 74
     0
 91
        4
 64
     7
 65
   257
 75
     1
175
     1
 42
1.0
 92
        0
 66
     7
 43
1.0
 76
     1
 77
     6
 78
     2
 67
     7
 79
     5
170
     0
171
     0
290
     0
174
     0
 93
       13
 44
0.0
173
     0
291
     1
 45
0.0
1001
ACAD
1000
AcDbSavedByObjectVersion
1070
     0
  0
VISUALSTYLE
  5
2E
102
{ACAD_REACTORS
330
2A
102
}
330
2A
100
AcDbVisualStyle
  2
GouraudWithEdges
 70
     3
 71
     2
 72
     2
 73
     1
 90
        2
 40
-0.6
 41
30.0
 62
     5
 63
     7
 74
     1
 91
        4
 64
     7
 65
   257
 75
     1
175
     1
 42
1.0
 92
        0
 66
   257
 43
1.0
 76
     1
 77
     6
 78
     2
 67
     7
 79
     5
170
     0
171
     0
290
     0
174
     0
 93
       13
 44
0.0
173
     0
291
     1
 45
0.0
1001
ACAD
1000
AcDbSavedByObjectVersion
1070
     0
  0
VISUALSTYLE
  5
38
102
{ACAD_REACTORS
330
2A
102
}
330
2A
100
AcDbVisualStyle
  2
Linepattern
 70
    14
 71
     2
 72
     2
 73
     0
 90
        0
 40
-0.6
 41
-30.0
 62
     5
 63
     7
 74
     1
 91
        4
 64
     7
 65
   257
 75
     7
175
     7
 42
1.0
 92
        8
 66
     7
 43
1.0
 76
     1
 77
     6
 78
     2
 67
     7
 79
     5
170
     0
171
     0
290
     0
174
     0
 93
        1
 44
0.0
173
     0
291
     1
 45
0.0
1001
ACAD
1000
AcDbSavedByObjectVersion
1070
     0
  0
VISUALSTYLE
  5
33
102
{ACAD_REACTORS
330
2A
102
}
330
2A
100
AcDbVisualStyle
  2
Realistic
 70
     8
 71
     2
 72
     2
 73
     0
 90
        0
 40
-0.6
 41
-30.0
 62
     5
 63
     7
 74
     1
 91
        0
 64
     7
 65
   257
 75
     1
175
     1
 42
1.0
 92
        8
 66
     8
 43
1.0
 76
     1
 77
     6
 78
     2
 67
     7
 79
     5
170
     0
171
     0
290
     0
174
     0
 93
       13
 44
0.0
173
     0
291
     0
 45
0.0
1001
ACAD
1000
AcDbSavedByObjectVersion
1070
     0
  0
VISUALSTYLE
  5
37
102
{ACAD_REACTORS
330
2A
102
}
330
2A
100
AcDbVisualStyle
  2
Thicken
 70
    13
 71
     2
 72
     2
 73
     0
 90
        0
 40
-0.6
 41
-30.0
 62
     5
 63
     7
 74
     1
 91
        4
 64
     7
 65
   257
 75
     1
175
     1
 42
1.0
 92
       12
 66
     7
 43
1.0
 76
     1
 77
     6
 78
     2
 67
     7
 79
     5
170
     0
171
     0
290
     0
174
     0
 93
        1
 44
0.0
173
     0
291
     1
 45
0.0
1001
ACAD
1000
AcDbSavedByObjectVersion
1070
     0
  0
ENDSEC
  0
EOF
