  0
SECTION
  2
HEADER
  9
$ACADVER
  1
AC1024
  9
$ACADMAINTVER
 70
     6
  9
$DWGCODEPAGE
  3
ANSI_1252
  9
$INSBASE
 10
0.0
 20
0.0
 30
0.0
  9
$EXTMIN
 10
1.000000000000000E+20
 20
1.000000000000000E+20
 30
1.000000000000000E+20
  9
$EXTMAX
 10
-1.000000000000000E+20
 20
-1.000000000000000E+20
 30
-1.000000000000000E+20
  9
$LIMMIN
 10
0.0
 20
0.0
  9
$LIMMAX
 10
12.0
 20
9.0
  9
$ORTHOMODE
 70
     0
  9
$REGENMODE
 70
     1
  9
$FILLMODE
 70
     1
  9
$QTEXTMODE
 70
     0
  9
$MIRRTEXT
 70
     1
  9
$LTSCALE
 40
1.0
  9
$ATTMODE
 70
     1
  9
$TEXTSIZE
 40
0.2
  9
$TRACEWID
 40
0.05
  9
$TEXTSTYLE
  7
Standard
  9
$CLAYER
  8
0
  9
$CELTYPE
  6
ByLayer
  9
$CECOLOR
 62
   256
  9
$CELTSCALE
 40
1.0
  9
$DISPSILH
 70
     0
  9
$DIMSCALE
 40
1.0
  9
$DIMASZ
 40
0.18
  9
$DIMEXO
 40
0.0625
  9
$DIMDLI
 40
0.38
  9
$DIMRND
 40
0.0
  9
$DIMDLE
 40
0.0
  9
$DIMEXE
 40
0.18
  9
$DIMTP
 40
0.0
  9
$DIMTM
 40
0.0
  9
$DIMTXT
 40
0.18
  9
$DIMCEN
 40
0.09
  9
$DIMTSZ
 40
0.0
  9
$DIMTOL
 70
     0
  9
$DIMLIM
 70
     0
  9
$DIMTIH
 70
     1
  9
$DIMTOH
 70
     1
  9
$DIMSE1
 70
     0
  9
$DIMSE2
 70
     0
  9
$DIMTAD
 70
     0
  9
$DIMZIN
 70
     0
  9
$DIMBLK
  1

  9
$DIMASO
 70
     1
  9
$DIMSHO
 70
     1
  9
$DIMPOST
  1

  9
$DIMAPOST
  1

  9
$DIMALT
 70
     0
  9
$DIMALTD
 70
     2
  9
$DIMALTF
 40
25.4
  9
$DIMLFAC
 40
1.0
  9
$DIMTOFL
 70
     0
  9
$DIMTVP
 40
0.0
  9
$DIMTIX
 70
     0
  9
$DIMSOXD
 70
     0
  9
$DIMSAH
 70
     0
  9
$DIMBLK1
  1

  9
$DIMBLK2
  1

  9
$DIMSTYLE
  2
Standard
  9
$DIMCLRD
 70
     0
  9
$DIMCLRE
 70
     0
  9
$DIMCLRT
 70
     0
  9
$DIMTFAC
 40
1.0
  9
$DIMGAP
 40
0.09
  9
$DIMJUST
 70
     0
  9
$DIMSD1
 70
     0
  9
$DIMSD2
 70
     0
  9
$DIMTOLJ
 70
     1
  9
$DIMTZIN
 70
     0
  9
$DIMALTZ
 70
     0
  9
$DIMALTTZ
 70
     0
  9
$DIMUPT
 70
     0
  9
$DIMDEC
 70
     4
  9
$DIMTDEC
 70
     4
  9
$DIMALTU
 70
     2
  9
$DIMALTTD
 70
     2
  9
$DIMTXSTY
  7
Standard
  9
$DIMAUNIT
 70
     0
  9
$DIMADEC
 70
     0
  9
$DIMALTRND
 40
0.0
  9
$DIMAZIN
 70
     0
  9
$DIMDSEP
 70
    46
  9
$DIMATFIT
 70
     3
  9
$DIMFRAC
 70
     0
  9
$DIMLDRBLK
  1

  9
$DIMLUNIT
 70
     2
  9
$DIMLWD
 70
    -2
  9
$DIMLWE
 70
    -2
  9
$DIMTMOVE
 70
     0
  9
$DIMFXL
 40
1.0
  9
$DIMFXLON
 70
     0
  9
$DIMJOGANG
 40
0.7853981633974483
  9
$DIMTFILL
 70
     0
  9
$DIMTFILLCLR
 70
     0
  9
$DIMARCSYM
 70
     0
  9
$DIMLTYPE
  6

  9
$DIMLTEX1
  6

  9
$DIMLTEX2
  6

  9
$DIMTXTDIRECTION
 70
     0
  9
$LUNITS
 70
     2
  9
$LUPREC
 70
     4
  9
$SKETCHINC
 40
0.1
  9
$FILLETRAD
 40
0.5
  9
$AUNITS
 70
     0
  9
$AUPREC
 70
     0
  9
$MENU
  1
.
  9
$ELEVATION
 40
0.0
  9
$PELEVATION
 40
0.0
  9
$THICKNESS
 40
0.0
  9
$LIMCHECK
 70
     0
  9
$CHAMFERA
 40
0.5
  9
$CHAMFERB
 40
0.5
  9
$CHAMFERC
 40
1.0
  9
$CHAMFERD
 40
0.0
  9
$SKPOLY
 70
     0
  9
$TDCREATE
 40
2456993.578294653
  9
$TDUCREATE
 40
2456993.140794653
  9
$TDUPDATE
 40
2456993.578294838
  9
$TDUUPDATE
 40
2456993.140794838
  9
$TDINDWG
 40
0.0000000116
  9
$TDUSRTIMER
 40
0.0000000116
  9
$USRTIMER
 70
     1
  9
$ANGBASE
 50
0.0
  9
$ANGDIR
 70
     0
  9
$PDMODE
 70
     0
  9
$PDSIZE
 40
0.0
  9
$PLINEWID
 40
0.0
  9
$SPLFRAME
 70
     0
  9
$SPLINETYPE
 70
     6
  9
$SPLINESEGS
 70
     8
  9
$HANDSEED
  5
426
  9
$SURFTAB1
 70
     6
  9
$SURFTAB2
 70
     6
  9
$SURFTYPE
 70
     6
  9
$SURFU
 70
     6
  9
$SURFV
 70
     6
  9
$UCSBASE
  2

  9
$UCSNAME
  2

  9
$UCSORG
 10
0.0
 20
0.0
 30
0.0
  9
$UCSXDIR
 10
1.0
 20
0.0
 30
0.0
  9
$UCSYDIR
 10
0.0
 20
1.0
 30
0.0
  9
$UCSORTHOREF
  2

  9
$UCSORTHOVIEW
 70
     0
  9
$UCSORGTOP
 10
0.0
 20
0.0
 30
0.0
  9
$UCSORGBOTTOM
 10
0.0
 20
0.0
 30
0.0
  9
$UCSORGLEFT
 10
0.0
 20
0.0
 30
0.0
  9
$UCSORGRIGHT
 10
0.0
 20
0.0
 30
0.0
  9
$UCSORGFRONT
 10
0.0
 20
0.0
 30
0.0
  9
$UCSORGBACK
 10
0.0
 20
0.0
 30
0.0
  9
$PUCSBASE
  2

  9
$PUCSNAME
  2

  9
$PUCSORG
 10
0.0
 20
0.0
 30
0.0
  9
$PUCSXDIR
 10
1.0
 20
0.0
 30
0.0
  9
$PUCSYDIR
 10
0.0
 20
1.0
 30
0.0
  9
$PUCSORTHOREF
  2

  9
$PUCSORTHOVIEW
 70
     0
  9
$PUCSORGTOP
 10
0.0
 20
0.0
 30
0.0
  9
$PUCSORGBOTTOM
 10
0.0
 20
0.0
 30
0.0
  9
$PUCSORGLEFT
 10
0.0
 20
0.0
 30
0.0
  9
$PUCSORGRIGHT
 10
0.0
 20
0.0
 30
0.0
  9
$PUCSORGFRONT
 10
0.0
 20
0.0
 30
0.0
  9
$PUCSORGBACK
 10
0.0
 20
0.0
 30
0.0
  9
$USERI1
 70
     0
  9
$USERI2
 70
     0
  9
$USERI3
 70
     0
  9
$USERI4
 70
     0
  9
$USERI5
 70
     0
  9
$USERR1
 40
0.0
  9
$USERR2
 40
0.0
  9
$USERR3
 40
0.0
  9
$USERR4
 40
0.0
  9
$USERR5
 40
0.0
  9
$WORLDVIEW
 70
     1
  9
$SHADEDGE
 70
     3
  9
$SHADEDIF
 70
    70
  9
$TILEMODE
 70
     1
  9
$MAXACTVP
 70
    64
  9
$PINSBASE
 10
0.0
 20
0.0
 30
0.0
  9
$PLIMCHECK
 70
     0
  9
$PEXTMIN
 10
1.000000000000000E+20
 20
1.000000000000000E+20
 30
1.000000000000000E+20
  9
$PEXTMAX
 10
-1.000000000000000E+20
 20
-1.000000000000000E+20
 30
-1.000000000000000E+20
  9
$PLIMMIN
 10
0.0
 20
0.0
  9
$PLIMMAX
 10
12.0
 20
9.0
  9
$UNITMODE
 70
     0
  9
$VISRETAIN
 70
     1
  9
$PLINEGEN
 70
     0
  9
$PSLTSCALE
 70
     1
  9
$TREEDEPTH
 70
  3020
  9
$CMLSTYLE
  2
Standard
  9
$CMLJUST
 70
     0
  9
$CMLSCALE
 40
1.0
  9
$PROXYGRAPHICS
 70
     1
  9
$MEASUREMENT
 70
     0
  9
$CELWEIGHT
370
    -1
  9
$ENDCAPS
280
     0
  9
$JOINSTYLE
280
     0
  9
$LWDISPLAY
290
     1
  9
$INSUNITS
 70
     1
  9
$HYPERLINKBASE
  1

  9
$STYLESHEET
  1

  9
$XEDIT
290
     1
  9
$CEPSNTYPE
380
     0
  9
$PSTYLEMODE
290
     1
  9
$FINGERPRINTGUID
  2
{7CCD2EB3-0EC0-452F-A694-A1EDE300E810}
  9
$VERSIONGUID
  2
{FAEB1C32-E019-11D5-929B-00C0DF256EC4}
  9
$EXTNAMES
290
     1
  9
$PSVPSCALE
 40
0.0
  9
$OLESTARTUP
290
     0
  9
$SORTENTS
280
   127
  9
$INDEXCTL
280
     0
  9
$HIDETEXT
280
     1
  9
$XCLIPFRAME
280
     2
  9
$HALOGAP
280
     0
  9
$OBSCOLOR
 70
   257
  9
$OBSLTYPE
280
     0
  9
$INTERSECTIONDISPLAY
280
     0
  9
$INTERSECTIONCOLOR
 70
   257
  9
$DIMASSOC
280
     2
  9
$PROJECTNAME
  1

  9
$CAMERADISPLAY
290
     0
  9
$LENSLENGTH
 40
50.0
  9
$CAMERAHEIGHT
 40
0.0
  9
$STEPSPERSEC
 40
2.0
  9
$STEPSIZE
 40
6.0
  9
$3DDWFPREC
 40
2.0
  9
$PSOLWIDTH
 40
0.25
  9
$PSOLHEIGHT
 40
4.0
  9
$LOFTANG1
 40
1.570796326794897
  9
$LOFTANG2
 40
1.570796326794897
  9
$LOFTMAG1
 40
0.0
  9
$LOFTMAG2
 40
0.0
  9
$LOFTPARAM
 70
     7
  9
$LOFTNORMALS
280
     1
  9
$LATITUDE
 40
37.795
  9
$LONGITUDE
 40
-122.394
  9
$NORTHDIRECTION
 40
0.0
  9
$TIMEZONE
 70
 -8000
  9
$LIGHTGLYPHDISPLAY
280
     1
  9
$TILEMODELIGHTSYNCH
280
     1
  9
$CMATERIAL
347
3C
  9
$SOLIDHIST
280
     1
  9
$SHOWHIST
280
     1
  9
$DWFFRAME
280
     2
  9
$DGNFRAME
280
     2
  9
$REALWORLDSCALE
290
     1
  9
$INTERFERECOLOR
 62
   256
  9
$CSHADOW
280
     0
  9
$SHADOWPLANELOCATION
 40
0.0
  0
ENDSEC
  0
SECTION
  2
CLASSES
  0
CLASS
  1
ACDBDICTIONARYWDFLT
  2
AcDbDictionaryWithDefault
  3
ObjectDBX Classes
 90
        0
 91
        4
280
     0
281
     0
  0
CLASS
  1
VISUALSTYLE
  2
AcDbVisualStyle
  3
ObjectDBX Classes
 90
     4095
 91
        4
280
     0
281
     0
  0
CLASS
  1
MATERIAL
  2
AcDbMaterial
  3
ObjectDBX Classes
 90
     1153
 91
        4
280
     0
281
     0
  0
CLASS
  1
SUN
  2
AcDbSun
  3
SCENEOE
 90
     1024
 91
        4
280
     0
281
     0
  0
ENDSEC
  0
SECTION
  2
TABLES
  0
TABLE
  2
VPORT
  5
8
330
0
100
AcDbSymbolTable
 70
     1
  0
VPORT
  5
29
330
8
100
AcDbSymbolTableRecord
100
AcDbViewportTableRecord
  2
*Active
 70
     0
 10
0.0
 20
0.0
 11
1.0
 21
1.0
 12
0.0
 22
0.0
 13
0.0
 23
0.0
 14
0.5
 24
0.5
 15
0.5
 25
0.5
 16
0.0
 26
0.0
 36
1.0
 17
326.3194443628646
 27
136.8777777435583
 37
0.0
 40
1269.9999996825
 41
1.42
 42
50.0
 43
0.0
 44
0.0
 50
0.0
 51
0.0
 71
     0
 72
   100
 73
     1
 74
     3
 75
     0
 76
     0
 77
     0
 78
     0
281
     0
 65
     1
110
0.0
120
0.0
130
0.0
111
1.0
121
0.0
131
0.0
112
0.0
122
1.0
132
0.0
 79
     0
146
0.0
 60
     3
 61
     5
292
     1
282
     1
141
0.0
142
0.0
 63
   250
361
3F
  0
ENDTAB
  0
TABLE
  2
LTYPE
  5
5
330
0
100
AcDbSymbolTable
 70
     1
  0
LTYPE
  5
14
330
5
100
AcDbSymbolTableRecord
100
AcDbLinetypeTableRecord
  2
ByBlock
 70
     0
  3

 72
    65
 73
     0
 40
0.0
  0
LTYPE
  5
15
330
5
100
AcDbSymbolTableRecord
100
AcDbLinetypeTableRecord
  2
ByLayer
 70
     0
  3

 72
    65
 73
     0
 40
0.0
  0
LTYPE
  5
16
330
5
100
AcDbSymbolTableRecord
100
AcDbLinetypeTableRecord
  2
Continuous
 70
     0
  3
Solid line
 72
    65
 73
     0
 40
0.0
  0
ENDTAB
  0
TABLE
  2
LAYER
  5
2
330
0
100
AcDbSymbolTable
 70
     3
  0
LAYER
  5
10
330
2
100
AcDbSymbolTableRecord
100
AcDbLayerTableRecord
  2
0
 70
     0
 62
     7
  6
Continuous
370
    -3
390
F
347
3E
  0
LAYER
  5
40
330
2
100
AcDbSymbolTableRecord
100
AcDbLayerTableRecord
  2
Layer 1
 70
     0
 62
     7
  6
Continuous
370
    -3
390
F
347
3E
  0
LAYER
  5
4B
330
2
100
AcDbSymbolTableRecord
100
AcDbLayerTableRecord
  2
Layer 2
 70
     0
 62
     7
  6
Continuous
370
    -3
390
F
347
3E
  0
ENDTAB
  0
TABLE
  2
STYLE
  5
3
330
0
100
AcDbSymbolTable
 70
     1
  0
STYLE
  5
11
330
3
100
AcDbSymbolTableRecord
100
AcDbTextStyleTableRecord
  2
Standard
 70
     0
 40
0.0
 41
1.0
 50
0.0
 71
     0
 42
0.2
  3
txt
  4

  0
ENDTAB
  0
TABLE
  2
VIEW
  5
6
330
0
100
AcDbSymbolTable
 70
     0
  0
ENDTAB
  0
TABLE
  2
UCS
  5
7
330
0
100
AcDbSymbolTable
 70
     0
  0
ENDTAB
  0
TABLE
  2
APPID
  5
9
330
0
100
AcDbSymbolTable
 70
     1
  0
APPID
  5
12
330
9
100
AcDbSymbolTableRecord
100
AcDbRegAppTableRecord
  2
ACAD
 70
     0
  0
ENDTAB
  0
TABLE
  2
DIMSTYLE
  5
A
330
0
100
AcDbSymbolTable
 70
     1
100
AcDbDimStyleTable
  0
DIMSTYLE
105
27
330
A
100
AcDbSymbolTableRecord
100
AcDbDimStyleTableRecord
  2
Standard
 70
     0
178
     0
340
11
  0
ENDTAB
  0
TABLE
  2
BLOCK_RECORD
  5
1
330
0
100
AcDbSymbolTable
 70
    47
  0
BLOCK_RECORD
  5
1F
330
1
100
AcDbSymbolTableRecord
100
AcDbBlockTableRecord
  2
*Model_Space
340
22
 70
     0
280
     1
281
     0
  0
BLOCK_RECORD
  5
1B
330
1
100
AcDbSymbolTableRecord
100
AcDbBlockTableRecord
  2
*Paper_Space
340
1E
 70
     0
280
     1
281
     0
  0
BLOCK_RECORD
  5
23
330
1
100
AcDbSymbolTableRecord
100
AcDbBlockTableRecord
  2
*Paper_Space0
340
26
 70
     0
280
     1
281
     0
  0
BLOCK_RECORD
  5
2AA
330
1
100
AcDbSymbolTableRecord
100
AcDbBlockTableRecord
  2
block 2
340
0
102
{BLKREFS
331
2AB
102
}
 70
     0
280
     1
281
     0
  0
BLOCK_RECORD
  5
2B2
330
1
100
AcDbSymbolTableRecord
100
AcDbBlockTableRecord
  2
block 3
340
0
102
{BLKREFS
331
2B3
102
}
 70
     0
280
     1
281
     0
  0
BLOCK_RECORD
  5
2BD
330
1
100
AcDbSymbolTableRecord
100
AcDbBlockTableRecord
  2
block 4
340
0
102
{BLKREFS
331
2BE
102
}
 70
     0
280
     1
281
     0
  0
BLOCK_RECORD
  5
2C5
330
1
100
AcDbSymbolTableRecord
100
AcDbBlockTableRecord
  2
block 5
340
0
102
{BLKREFS
331
2C6
102
}
 70
     0
280
     1
281
     0
  0
BLOCK_RECORD
  5
2D0
330
1
100
AcDbSymbolTableRecord
100
AcDbBlockTableRecord
  2
block 6
340
0
102
{BLKREFS
331
2D1
102
}
 70
     0
280
     1
281
     0
  0
BLOCK_RECORD
  5
2D8
330
1
100
AcDbSymbolTableRecord
100
AcDbBlockTableRecord
  2
block 7
340
0
102
{BLKREFS
331
2D9
102
}
 70
     0
280
     1
281
     0
  0
BLOCK_RECORD
  5
2E3
330
1
100
AcDbSymbolTableRecord
100
AcDbBlockTableRecord
  2
block 8
340
0
102
{BLKREFS
331
2E4
102
}
 70
     0
280
     1
281
     0
  0
BLOCK_RECORD
  5
2EB
330
1
100
AcDbSymbolTableRecord
100
AcDbBlockTableRecord
  2
block 9
340
0
102
{BLKREFS
331
2EC
102
}
 70
     0
280
     1
281
     0
  0
BLOCK_RECORD
  5
2F6
330
1
100
AcDbSymbolTableRecord
100
AcDbBlockTableRecord
  2
block 10
340
0
102
{BLKREFS
331
2F7
102
}
 70
     0
280
     1
281
     0
  0
BLOCK_RECORD
  5
2FE
330
1
100
AcDbSymbolTableRecord
100
AcDbBlockTableRecord
  2
block 11
340
0
102
{BLKREFS
331
2FF
102
}
 70
     0
280
     1
281
     0
  0
BLOCK_RECORD
  5
309
330
1
100
AcDbSymbolTableRecord
100
AcDbBlockTableRecord
  2
block 12
340
0
102
{BLKREFS
331
30A
102
}
 70
     0
280
     1
281
     0
  0
BLOCK_RECORD
  5
311
330
1
100
AcDbSymbolTableRecord
100
AcDbBlockTableRecord
  2
block 13
340
0
102
{BLKREFS
331
312
102
}
 70
     0
280
     1
281
     0
  0
BLOCK_RECORD
  5
31C
330
1
100
AcDbSymbolTableRecord
100
AcDbBlockTableRecord
  2
block 14
340
0
102
{BLKREFS
331
31D
102
}
 70
     0
280
     1
281
     0
  0
BLOCK_RECORD
  5
325
330
1
100
AcDbSymbolTableRecord
100
AcDbBlockTableRecord
  2
block 15
340
0
102
{BLKREFS
331
326
102
}
 70
     0
280
     1
281
     0
  0
BLOCK_RECORD
  5
330
330
1
100
AcDbSymbolTableRecord
100
AcDbBlockTableRecord
  2
block 16
340
0
102
{BLKREFS
331
331
102
}
 70
     0
280
     1
281
     0
  0
BLOCK_RECORD
  5
338
330
1
100
AcDbSymbolTableRecord
100
AcDbBlockTableRecord
  2
block 17
340
0
102
{BLKREFS
331
339
102
}
 70
     0
280
     1
281
     0
  0
BLOCK_RECORD
  5
343
330
1
100
AcDbSymbolTableRecord
100
AcDbBlockTableRecord
  2
block 18
340
0
102
{BLKREFS
331
344
102
}
 70
     0
280
     1
281
     0
  0
BLOCK_RECORD
  5
34B
330
1
100
AcDbSymbolTableRecord
100
AcDbBlockTableRecord
  2
block 19
340
0
102
{BLKREFS
331
34C
102
}
 70
     0
280
     1
281
     0
  0
BLOCK_RECORD
  5
356
330
1
100
AcDbSymbolTableRecord
100
AcDbBlockTableRecord
  2
block 20
340
0
102
{BLKREFS
331
357
102
}
 70
     0
280
     1
281
     0
  0
BLOCK_RECORD
  5
35E
330
1
100
AcDbSymbolTableRecord
100
AcDbBlockTableRecord
  2
block 21
340
0
102
{BLKREFS
331
35F
102
}
 70
     0
280
     1
281
     0
  0
BLOCK_RECORD
  5
369
330
1
100
AcDbSymbolTableRecord
100
AcDbBlockTableRecord
  2
block 22
340
0
102
{BLKREFS
331
36A
102
}
 70
     0
280
     1
281
     0
  0
BLOCK_RECORD
  5
371
330
1
100
AcDbSymbolTableRecord
100
AcDbBlockTableRecord
  2
block 23
340
0
102
{BLKREFS
331
372
102
}
 70
     0
280
     1
281
     0
  0
BLOCK_RECORD
  5
37C
330
1
100
AcDbSymbolTableRecord
100
AcDbBlockTableRecord
  2
block 24
340
0
102
{BLKREFS
331
37D
102
}
 70
     0
280
     1
281
     0
  0
BLOCK_RECORD
  5
384
330
1
100
AcDbSymbolTableRecord
100
AcDbBlockTableRecord
  2
block 25
340
0
102
{BLKREFS
331
385
102
}
 70
     0
280
     1
281
     0
  0
BLOCK_RECORD
  5
38F
330
1
100
AcDbSymbolTableRecord
100
AcDbBlockTableRecord
  2
block 26
340
0
102
{BLKREFS
331
390
102
}
 70
     0
280
     1
281
     0
  0
BLOCK_RECORD
  5
397
330
1
100
AcDbSymbolTableRecord
100
AcDbBlockTableRecord
  2
block 27
340
0
102
{BLKREFS
331
398
102
}
 70
     0
280
     1
281
     0
  0
BLOCK_RECORD
  5
3A2
330
1
100
AcDbSymbolTableRecord
100
AcDbBlockTableRecord
  2
block 28
340
0
102
{BLKREFS
331
3A3
102
}
 70
     0
280
     1
281
     0
  0
BLOCK_RECORD
  5
3AA
330
1
100
AcDbSymbolTableRecord
100
AcDbBlockTableRecord
  2
block 29
340
0
102
{BLKREFS
331
3AB
102
}
 70
     0
280
     1
281
     0
  0
BLOCK_RECORD
  5
3B5
330
1
100
AcDbSymbolTableRecord
100
AcDbBlockTableRecord
  2
block 30
340
0
102
{BLKREFS
331
3B6
102
}
 70
     0
280
     1
281
     0
  0
BLOCK_RECORD
  5
3BD
330
1
100
AcDbSymbolTableRecord
100
AcDbBlockTableRecord
  2
block 31
340
0
102
{BLKREFS
331
3BE
102
}
 70
     0
280
     1
281
     0
  0
BLOCK_RECORD
  5
3C8
330
1
100
AcDbSymbolTableRecord
100
AcDbBlockTableRecord
  2
block 32
340
0
102
{BLKREFS
331
3C9
102
}
 70
     0
280
     1
281
     0
  0
BLOCK_RECORD
  5
3CD
330
1
100
AcDbSymbolTableRecord
100
AcDbBlockTableRecord
  2
block 33
340
0
102
{BLKREFS
331
3CE
102
}
 70
     0
280
     1
281
     0
  0
BLOCK_RECORD
  5
3D2
330
1
100
AcDbSymbolTableRecord
100
AcDbBlockTableRecord
  2
block 34
340
0
102
{BLKREFS
331
3D3
102
}
 70
     0
280
     1
281
     0
  0
BLOCK_RECORD
  5
3D8
330
1
100
AcDbSymbolTableRecord
100
AcDbBlockTableRecord
  2
block 35
340
0
102
{BLKREFS
331
3D9
102
}
 70
     0
280
     1
281
     0
  0
BLOCK_RECORD
  5
3DD
330
1
100
AcDbSymbolTableRecord
100
AcDbBlockTableRecord
  2
block 36
340
0
102
{BLKREFS
331
3DE
102
}
 70
     0
280
     1
281
     0
  0
BLOCK_RECORD
  5
3E2
330
1
100
AcDbSymbolTableRecord
100
AcDbBlockTableRecord
  2
block 37
340
0
102
{BLKREFS
331
3E3
102
}
 70
     0
280
     1
281
     0
  0
BLOCK_RECORD
  5
3E7
330
1
100
AcDbSymbolTableRecord
100
AcDbBlockTableRecord
  2
block 38
340
0
102
{BLKREFS
331
3E8
102
}
 70
     0
280
     1
281
     0
  0
BLOCK_RECORD
  5
3EC
330
1
100
AcDbSymbolTableRecord
100
AcDbBlockTableRecord
  2
block 39
340
0
102
{BLKREFS
331
3ED
102
}
 70
     0
280
     1
281
     0
  0
BLOCK_RECORD
  5
3F1
330
1
100
AcDbSymbolTableRecord
100
AcDbBlockTableRecord
  2
block 40
340
0
102
{BLKREFS
331
3F2
102
}
 70
     0
280
     1
281
     0
  0
BLOCK_RECORD
  5
3F6
330
1
100
AcDbSymbolTableRecord
100
AcDbBlockTableRecord
  2
block 41
340
0
102
{BLKREFS
331
3F7
102
}
 70
     0
280
     1
281
     0
  0
BLOCK_RECORD
  5
3FB
330
1
100
AcDbSymbolTableRecord
100
AcDbBlockTableRecord
  2
block 42
340
0
102
{BLKREFS
331
3FC
102
}
 70
     0
280
     1
281
     0
  0
BLOCK_RECORD
  5
407
330
1
100
AcDbSymbolTableRecord
100
AcDbBlockTableRecord
  2
block 43
340
0
102
{BLKREFS
331
408
102
}
 70
     0
280
     1
281
     0
  0
BLOCK_RECORD
  5
40C
330
1
100
AcDbSymbolTableRecord
100
AcDbBlockTableRecord
  2
block 44
340
0
102
{BLKREFS
331
40D
102
}
 70
     0
280
     1
281
     0
  0
BLOCK_RECORD
  5
411
330
1
100
AcDbSymbolTableRecord
100
AcDbBlockTableRecord
  2
block 45
340
0
102
{BLKREFS
331
412
102
}
 70
     0
280
     1
281
     0
  0
BLOCK_RECORD
  5
416
330
1
100
AcDbSymbolTableRecord
100
AcDbBlockTableRecord
  2
block 46
340
0
102
{BLKREFS
331
417
102
}
 70
     0
280
     1
281
     0
  0
BLOCK_RECORD
  5
41B
330
1
100
AcDbSymbolTableRecord
100
AcDbBlockTableRecord
  2
block 47
340
0
102
{BLKREFS
331
41C
102
}
 70
     0
280
     1
281
     0
  0
ENDTAB
  0
ENDSEC
  0
SECTION
  2
BLOCKS
  0
BLOCK
  5
20
330
1F
100
AcDbEntity
  8
0
100
AcDbBlockBegin
  2
*Model_Space
 70
     0
 10
0.0
 20
0.0
 30
0.0
  3
*Model_Space
  1

  0
ENDBLK
  5
21
330
1F
100
AcDbEntity
  8
0
100
AcDbBlockEnd
  0
BLOCK
  5
1C
330
1B
100
AcDbEntity
 67
     1
  8
0
100
AcDbBlockBegin
  2
*Paper_Space
 70
     0
 10
0.0
 20
0.0
 30
0.0
  3
*Paper_Space
  1

  0
ENDBLK
  5
1D
330
1B
100
AcDbEntity
 67
     1
  8
0
100
AcDbBlockEnd
  0
BLOCK
  5
24
330
23
100
AcDbEntity
  8
0
100
AcDbBlockBegin
  2
*Paper_Space0
 70
     0
 10
0.0
 20
0.0
 30
0.0
  3
*Paper_Space0
  1

  0
ENDBLK
  5
25
330
23
100
AcDbEntity
  8
0
100
AcDbBlockEnd
  0
BLOCK
  5
2AC
330
2AA
100
AcDbEntity
  8
0
100
AcDbBlockBegin
  2
block 2
 70
     0
 10
0.0
 20
0.0
 30
0.0
  3
block 2
  1

  0
POLYLINE
  5
2AE
330
2AA
100
AcDbEntity
  8
Layer 2
 62
     7
420
 16777215
370
    20
100
AcDb2dPolyline
 66
     1
 10
0.0
 20
0.0
 30
0.0
  0
VERTEX
  5
2AF
330
2AE
100
AcDbEntity
  8
Layer 2
 62
     7
420
 16777215
370
    20
100
AcDbVertex
100
AcDb2dVertex
 10
-19.92031583064823
 20
32.80026788224475
 30
0.0
  0
VERTEX
  5
2B0
330
2AE
100
AcDbEntity
  8
Layer 2
 62
     7
420
 16777215
370
    20
100
AcDbVertex
100
AcDb2dVertex
 10
338.6826800868141
 20
32.80026788224475
 30
0.0
  0
SEQEND
  5
2B1
330
2AE
100
AcDbEntity
  8
Layer 2
 62
     7
420
 16777215
370
    20
  0
INSERT
  5
2B3
330
2AA
100
AcDbEntity
  8
Layer 2
100
AcDbBlockReference
  2
block 3
 10
0.0
 20
0.0
 30
0.0
  0
ENDBLK
  5
2AD
330
2AA
100
AcDbEntity
  8
0
100
AcDbBlockEnd
  0
BLOCK
  5
2B4
330
2B2
100
AcDbEntity
  8
0
100
AcDbBlockBegin
  2
block 3
 70
     0
 10
0.0
 20
0.0
 30
0.0
  3
block 3
  1

  0
POLYLINE
  5
2B6
330
2B2
100
AcDbEntity
  8
Layer 2
370
     0
100
AcDb2dPolyline
 66
     1
 10
0.0
 20
0.0
 30
0.0
  0
VERTEX
  5
2B7
330
2B6
100
AcDbEntity
  8
Layer 2
370
     0
100
AcDbVertex
100
AcDb2dVertex
 10
-17.38514571911551
 20
29.0830698420735
 30
0.0
  0
VERTEX
  5
2B8
330
2B6
100
AcDbEntity
  8
Layer 2
370
     0
100
AcDbVertex
100
AcDb2dVertex
 10
-31.25549016638337
 20
32.80026788224475
 30
0.0
  0
VERTEX
  5
2B9
330
2B6
100
AcDbEntity
  8
Layer 2
370
     0
100
AcDbVertex
100
AcDb2dVertex
 10
-17.38514571911551
 20
36.51739704970257
 30
0.0
  0
VERTEX
  5
2BA
330
2B6
100
AcDbEntity
  8
Layer 2
370
     0
100
AcDbVertex
100
AcDb2dVertex
 10
-17.38514571911551
 20
29.0830698420735
 30
0.0
  0
SEQEND
  5
2BC
330
2B6
100
AcDbEntity
  8
Layer 2
370
     0
  0
HATCH
  5
2BB
330
2B2
100
AcDbEntity
  8
Layer 2
 62
     7
420
 16777215
100
AcDbHatch
 10
0.0
 20
0.0
 30
0.0
210
0.0
220
0.0
230
1.0
  2
SOLID
 70
     1
 71
     0
 91
        1
 92
        1
 93
        3
 72
     1
 10
-17.38514571911551
 20
29.0830698420735
 11
-31.25549016638337
 21
32.80026788224475
 72
     1
 10
-31.25549016638337
 20
32.80026788224475
 11
-17.38514571911551
 21
36.51739704970257
 72
     1
 10
-17.38514571911551
 20
36.51739704970257
 11
-17.38514571911551
 21
29.0830698420735
 97
        0
 75
     2
 76
     1
 98
        0
  0
ENDBLK
  5
2B5
330
2B2
100
AcDbEntity
  8
0
100
AcDbBlockEnd
  0
BLOCK
  5
2BF
330
2BD
100
AcDbEntity
  8
0
100
AcDbBlockBegin
  2
block 4
 70
     0
 10
0.0
 20
0.0
 30
0.0
  3
block 4
  1

  0
POLYLINE
  5
2C1
330
2BD
100
AcDbEntity
  8
Layer 2
 62
     7
420
 16777215
370
    20
100
AcDb2dPolyline
 66
     1
 10
0.0
 20
0.0
 30
0.0
  0
VERTEX
  5
2C2
330
2C1
100
AcDbEntity
  8
Layer 2
 62
     7
420
 16777215
370
    20
100
AcDbVertex
100
AcDb2dVertex
 10
9.869715061298333
 20
76.67287448509335
 30
0.0
  0
VERTEX
  5
2C3
330
2C1
100
AcDbEntity
  8
Layer 2
 62
     7
420
 16777215
370
    20
100
AcDbVertex
100
AcDb2dVertex
 10
131.777274440612
 20
76.67287448509335
 30
0.0
  0
SEQEND
  5
2C4
330
2C1
100
AcDbEntity
  8
Layer 2
 62
     7
420
 16777215
370
    20
  0
INSERT
  5
2C6
330
2BD
100
AcDbEntity
  8
Layer 2
100
AcDbBlockReference
  2
block 5
 10
0.0
 20
0.0
 30
0.0
  0
ENDBLK
  5
2C0
330
2BD
100
AcDbEntity
  8
0
100
AcDbBlockEnd
  0
BLOCK
  5
2C7
330
2C5
100
AcDbEntity
  8
0
100
AcDbBlockBegin
  2
block 5
 70
     0
 10
0.0
 20
0.0
 30
0.0
  3
block 5
  1

  0
POLYLINE
  5
2C9
330
2C5
100
AcDbEntity
  8
Layer 2
370
     0
100
AcDb2dPolyline
 66
     1
 10
0.0
 20
0.0
 30
0.0
  0
VERTEX
  5
2CA
330
2C9
100
AcDbEntity
  8
Layer 2
370
     0
100
AcDbVertex
100
AcDb2dVertex
 10
12.40488517283105
 20
72.9556764449221
 30
0.0
  0
VERTEX
  5
2CB
330
2C9
100
AcDbEntity
  8
Layer 2
370
     0
100
AcDbVertex
100
AcDb2dVertex
 10
-1.465459274436802
 20
76.67287448509335
 30
0.0
  0
VERTEX
  5
2CC
330
2C9
100
AcDbEntity
  8
Layer 2
370
     0
100
AcDbVertex
100
AcDb2dVertex
 10
12.40488517283105
 20
80.39000365255117
 30
0.0
  0
VERTEX
  5
2CD
330
2C9
100
AcDbEntity
  8
Layer 2
370
     0
100
AcDbVertex
100
AcDb2dVertex
 10
12.40488517283105
 20
72.9556764449221
 30
0.0
  0
SEQEND
  5
2CF
330
2C9
100
AcDbEntity
  8
Layer 2
370
     0
  0
HATCH
  5
2CE
330
2C5
100
AcDbEntity
  8
Layer 2
 62
     7
420
 16777215
100
AcDbHatch
 10
0.0
 20
0.0
 30
0.0
210
0.0
220
0.0
230
1.0
  2
SOLID
 70
     1
 71
     0
 91
        1
 92
        1
 93
        3
 72
     1
 10
12.40488517283105
 20
72.9556764449221
 11
-1.465459274436801
 21
76.67287448509335
 72
     1
 10
-1.465459274436802
 20
76.67287448509335
 11
12.40488517283105
 21
80.39000365255117
 72
     1
 10
12.40488517283105
 20
80.39000365255117
 11
12.40488517283105
 21
72.9556764449221
 97
        0
 75
     2
 76
     1
 98
        0
  0
ENDBLK
  5
2C8
330
2C5
100
AcDbEntity
  8
0
100
AcDbBlockEnd
  0
BLOCK
  5
2D2
330
2D0
100
AcDbEntity
  8
0
100
AcDbBlockBegin
  2
block 6
 70
     0
 10
0.0
 20
0.0
 30
0.0
  3
block 6
  1

  0
POLYLINE
  5
2D4
330
2D0
100
AcDbEntity
  8
Layer 2
 62
     7
420
 16777215
370
    20
100
AcDb2dPolyline
 66
     1
 10
0.0
 20
0.0
 30
0.0
  0
VERTEX
  5
2D5
330
2D4
100
AcDbEntity
  8
Layer 2
 62
     7
420
 16777215
370
    20
100
AcDbVertex
100
AcDb2dVertex
 10
-139.1352820840741
 20
534.9583855943908
 30
0.0
  0
VERTEX
  5
2D6
330
2D4
100
AcDbEntity
  8
Layer 2
 62
     7
420
 16777215
370
    20
100
AcDbVertex
100
AcDb2dVertex
 10
-139.1352820840741
 20
372.4281507342996
 30
0.0
  0
SEQEND
  5
2D7
330
2D4
100
AcDbEntity
  8
Layer 2
 62
     7
420
 16777215
370
    20
  0
INSERT
  5
2D9
330
2D0
100
AcDbEntity
  8
Layer 2
100
AcDbBlockReference
  2
block 7
 10
0.0
 20
0.0
 30
0.0
  0
ENDBLK
  5
2D3
330
2D0
100
AcDbEntity
  8
0
100
AcDbBlockEnd
  0
BLOCK
  5
2DA
330
2D8
100
AcDbEntity
  8
0
100
AcDbBlockBegin
  2
block 7
 70
     0
 10
0.0
 20
0.0
 30
0.0
  3
block 7
  1

  0
POLYLINE
  5
2DC
330
2D8
100
AcDbEntity
  8
Layer 2
370
     0
100
AcDb2dPolyline
 66
     1
 10
0.0
 20
0.0
 30
0.0
  0
VERTEX
  5
2DD
330
2DC
100
AcDbEntity
  8
Layer 2
370
     0
100
AcDbVertex
100
AcDb2dVertex
 10
-142.8524629060664
 20
532.4231810464976
 30
0.0
  0
VERTEX
  5
2DE
330
2DC
100
AcDbEntity
  8
Layer 2
370
     0
100
AcDbVertex
100
AcDb2dVertex
 10
-139.1352820840741
 20
546.2935943664804
 30
0.0
  0
VERTEX
  5
2DF
330
2DC
100
AcDbEntity
  8
Layer 2
370
     0
100
AcDbVertex
100
AcDb2dVertex
 10
-135.4181184802583
 20
532.4231810464976
 30
0.0
  0
VERTEX
  5
2E0
330
2DC
100
AcDbEntity
  8
Layer 2
370
     0
100
AcDbVertex
100
AcDb2dVertex
 10
-142.8524629060664
 20
532.4231810464976
 30
0.0
  0
SEQEND
  5
2E2
330
2DC
100
AcDbEntity
  8
Layer 2
370
     0
  0
HATCH
  5
2E1
330
2D8
100
AcDbEntity
  8
Layer 2
 62
     7
420
 16777215
100
AcDbHatch
 10
0.0
 20
0.0
 30
0.0
210
0.0
220
0.0
230
1.0
  2
SOLID
 70
     1
 71
     0
 91
        1
 92
        1
 93
        3
 72
     1
 10
-142.8524629060664
 20
532.4231810464976
 11
-139.1352820840741
 21
546.2935943664804
 72
     1
 10
-139.1352820840741
 20
546.2935943664804
 11
-135.4181184802583
 21
532.4231810464976
 72
     1
 10
-135.4181184802583
 20
532.4231810464976
 11
-142.8524629060664
 21
532.4231810464976
 97
        0
 75
     2
 76
     1
 98
        0
  0
ENDBLK
  5
2DB
330
2D8
100
AcDbEntity
  8
0
100
AcDbBlockEnd
  0
BLOCK
  5
2E5
330
2E3
100
AcDbEntity
  8
0
100
AcDbBlockBegin
  2
block 8
 70
     0
 10
0.0
 20
0.0
 30
0.0
  3
block 8
  1

  0
POLYLINE
  5
2E7
330
2E3
100
AcDbEntity
  8
Layer 2
 62
     7
420
 16777215
370
    20
100
AcDb2dPolyline
 66
     1
 10
0.0
 20
0.0
 30
0.0
  0
VERTEX
  5
2E8
330
2E7
100
AcDbEntity
  8
Layer 2
 62
     7
420
 16777215
370
    20
100
AcDbVertex
100
AcDb2dVertex
 10
-95.33399317503938
 20
609.9750950537002
 30
0.0
  0
VERTEX
  5
2E9
330
2E7
100
AcDbEntity
  8
Layer 2
 62
     7
420
 16777215
370
    20
100
AcDbVertex
100
AcDb2dVertex
 10
-95.33399317503938
 20
539.2523237292087
 30
0.0
  0
SEQEND
  5
2EA
330
2E7
100
AcDbEntity
  8
Layer 2
 62
     7
420
 16777215
370
    20
  0
INSERT
  5
2EC
330
2E3
100
AcDbEntity
  8
Layer 2
100
AcDbBlockReference
  2
block 9
 10
0.0
 20
0.0
 30
0.0
  0
ENDBLK
  5
2E6
330
2E3
100
AcDbEntity
  8
0
100
AcDbBlockEnd
  0
BLOCK
  5
2ED
330
2EB
100
AcDbEntity
  8
0
100
AcDbBlockBegin
  2
block 9
 70
     0
 10
0.0
 20
0.0
 30
0.0
  3
block 9
  1

  0
POLYLINE
  5
2EF
330
2EB
100
AcDbEntity
  8
Layer 2
370
     0
100
AcDb2dPolyline
 66
     1
 10
0.0
 20
0.0
 30
0.0
  0
VERTEX
  5
2F0
330
2EF
100
AcDbEntity
  8
Layer 2
370
     0
100
AcDbVertex
100
AcDb2dVertex
 10
-99.05117399703163
 20
607.4398905058107
 30
0.0
  0
VERTEX
  5
2F1
330
2EF
100
AcDbEntity
  8
Layer 2
370
     0
100
AcDbVertex
100
AcDb2dVertex
 10
-95.33399317503938
 20
621.3103038257901
 30
0.0
  0
VERTEX
  5
2F2
330
2EF
100
AcDbEntity
  8
Layer 2
370
     0
100
AcDbVertex
100
AcDb2dVertex
 10
-91.61682957122612
 20
607.4398905058107
 30
0.0
  0
VERTEX
  5
2F3
330
2EF
100
AcDbEntity
  8
Layer 2
370
     0
100
AcDbVertex
100
AcDb2dVertex
 10
-99.05117399703163
 20
607.4398905058107
 30
0.0
  0
SEQEND
  5
2F5
330
2EF
100
AcDbEntity
  8
Layer 2
370
     0
  0
HATCH
  5
2F4
330
2EB
100
AcDbEntity
  8
Layer 2
 62
     7
420
 16777215
100
AcDbHatch
 10
0.0
 20
0.0
 30
0.0
210
0.0
220
0.0
230
1.0
  2
SOLID
 70
     1
 71
     0
 91
        1
 92
        1
 93
        3
 72
     1
 10
-99.05117399703163
 20
607.4398905058107
 11
-95.33399317503938
 21
621.3103038257901
 72
     1
 10
-95.33399317503938
 20
621.3103038257901
 11
-91.61682957122612
 21
607.4398905058107
 72
     1
 10
-91.61682957122612
 20
607.4398905058107
 11
-99.05117399703163
 21
607.4398905058107
 97
        0
 75
     2
 76
     1
 98
        0
  0
ENDBLK
  5
2EE
330
2EB
100
AcDbEntity
  8
0
100
AcDbBlockEnd
  0
BLOCK
  5
2F8
330
2F6
100
AcDbEntity
  8
0
100
AcDbBlockBegin
  2
block 10
 70
     0
 10
0.0
 20
0.0
 30
0.0
  3
block 10
  1

  0
POLYLINE
  5
2FA
330
2F6
100
AcDbEntity
  8
Layer 2
 62
     7
420
 16777215
370
    20
100
AcDb2dPolyline
 66
     1
 10
0.0
 20
0.0
 30
0.0
  0
VERTEX
  5
2FB
330
2FA
100
AcDbEntity
  8
Layer 2
 62
     7
420
 16777215
370
    20
100
AcDbVertex
100
AcDb2dVertex
 10
-95.33399317503938
 20
439.5067290938908
 30
0.0
  0
VERTEX
  5
2FC
330
2FA
100
AcDbEntity
  8
Layer 2
 62
     7
420
 16777215
370
    20
100
AcDbVertex
100
AcDb2dVertex
 10
-95.33399317503938
 20
479.6721930726002
 30
0.0
  0
SEQEND
  5
2FD
330
2FA
100
AcDbEntity
  8
Layer 2
 62
     7
420
 16777215
370
    20
  0
INSERT
  5
2FF
330
2F6
100
AcDbEntity
  8
Layer 2
100
AcDbBlockReference
  2
block 11
 10
0.0
 20
0.0
 30
0.0
  0
ENDBLK
  5
2F9
330
2F6
100
AcDbEntity
  8
0
100
AcDbBlockEnd
  0
BLOCK
  5
300
330
2FE
100
AcDbEntity
  8
0
100
AcDbBlockBegin
  2
block 11
 70
     0
 10
0.0
 20
0.0
 30
0.0
  3
block 11
  1

  0
POLYLINE
  5
302
330
2FE
100
AcDbEntity
  8
Layer 2
370
     0
100
AcDb2dPolyline
 66
     1
 10
0.0
 20
0.0
 30
0.0
  0
VERTEX
  5
303
330
302
100
AcDbEntity
  8
Layer 2
370
     0
100
AcDbVertex
100
AcDb2dVertex
 10
-91.61681235304712
 20
442.0419336417841
 30
0.0
  0
VERTEX
  5
304
330
302
100
AcDbEntity
  8
Layer 2
370
     0
100
AcDbVertex
100
AcDb2dVertex
 10
-95.33399317503938
 20
428.1715203218009
 30
0.0
  0
VERTEX
  5
305
330
302
100
AcDbEntity
  8
Layer 2
370
     0
100
AcDbVertex
100
AcDb2dVertex
 10
-99.05115677885263
 20
442.0419336417841
 30
0.0
  0
VERTEX
  5
306
330
302
100
AcDbEntity
  8
Layer 2
370
     0
100
AcDbVertex
100
AcDb2dVertex
 10
-91.61681235304712
 20
442.0419336417841
 30
0.0
  0
SEQEND
  5
308
330
302
100
AcDbEntity
  8
Layer 2
370
     0
  0
HATCH
  5
307
330
2FE
100
AcDbEntity
  8
Layer 2
 62
     7
420
 16777215
100
AcDbHatch
 10
0.0
 20
0.0
 30
0.0
210
0.0
220
0.0
230
1.0
  2
SOLID
 70
     1
 71
     0
 91
        1
 92
        1
 93
        3
 72
     1
 10
-91.61681235304712
 20
442.0419336417841
 11
-95.33399317503938
 21
428.1715203218009
 72
     1
 10
-95.33399317503938
 20
428.1715203218009
 11
-99.05115677885263
 21
442.0419336417841
 72
     1
 10
-99.05115677885263
 20
442.0419336417841
 11
-91.61681235304712
 21
442.0419336417841
 97
        0
 75
     2
 76
     1
 98
        0
  0
ENDBLK
  5
301
330
2FE
100
AcDbEntity
  8
0
100
AcDbBlockEnd
  0
BLOCK
  5
30B
330
309
100
AcDbEntity
  8
0
100
AcDbBlockBegin
  2
block 12
 70
     0
 10
0.0
 20
0.0
 30
0.0
  3
block 12
  1

  0
POLYLINE
  5
30D
330
309
100
AcDbEntity
  8
Layer 2
 62
     7
420
 16777215
370
    20
100
AcDb2dPolyline
 66
     1
 10
0.0
 20
0.0
 30
0.0
  0
VERTEX
  5
30E
330
30D
100
AcDbEntity
  8
Layer 2
 62
     7
420
 16777215
370
    20
100
AcDbVertex
100
AcDb2dVertex
 10
-139.1352993022509
 20
157.3428018947182
 30
0.0
  0
VERTEX
  5
30F
330
30D
100
AcDbEntity
  8
Layer 2
 62
     7
420
 16777215
370
    20
100
AcDbVertex
100
AcDb2dVertex
 10
-139.1352993022509
 20
303.4484100182823
 30
0.0
  0
SEQEND
  5
310
330
30D
100
AcDbEntity
  8
Layer 2
 62
     7
420
 16777215
370
    20
  0
INSERT
  5
312
330
309
100
AcDbEntity
  8
Layer 2
100
AcDbBlockReference
  2
block 13
 10
0.0
 20
0.0
 30
0.0
  0
ENDBLK
  5
30C
330
309
100
AcDbEntity
  8
0
100
AcDbBlockEnd
  0
BLOCK
  5
313
330
311
100
AcDbEntity
  8
0
100
AcDbBlockBegin
  2
block 13
 70
     0
 10
0.0
 20
0.0
 30
0.0
  3
block 13
  1

  0
POLYLINE
  5
315
330
311
100
AcDbEntity
  8
Layer 2
370
     0
100
AcDb2dPolyline
 66
     1
 10
0.0
 20
0.0
 30
0.0
  0
VERTEX
  5
316
330
315
100
AcDbEntity
  8
Layer 2
370
     0
100
AcDbVertex
100
AcDb2dVertex
 10
-135.4181356984373
 20
159.8780064426064
 30
0.0
  0
VERTEX
  5
317
330
315
100
AcDbEntity
  8
Layer 2
370
     0
100
AcDbVertex
100
AcDb2dVertex
 10
-139.1352993022509
 20
146.0077308680519
 30
0.0
  0
VERTEX
  5
318
330
315
100
AcDbEntity
  8
Layer 2
370
     0
100
AcDbVertex
100
AcDb2dVertex
 10
-142.8524801242428
 20
159.8780064426064
 30
0.0
  0
VERTEX
  5
319
330
315
100
AcDbEntity
  8
Layer 2
370
     0
100
AcDbVertex
100
AcDb2dVertex
 10
-135.4181356984373
 20
159.8780064426064
 30
0.0
  0
SEQEND
  5
31B
330
315
100
AcDbEntity
  8
Layer 2
370
     0
  0
HATCH
  5
31A
330
311
100
AcDbEntity
  8
Layer 2
 62
     7
420
 16777215
100
AcDbHatch
 10
0.0
 20
0.0
 30
0.0
210
0.0
220
0.0
230
1.0
  2
SOLID
 70
     1
 71
     0
 91
        1
 92
        1
 93
        3
 72
     1
 10
-135.4181356984373
 20
159.8780064426064
 11
-139.1352993022509
 21
146.0077308680519
 72
     1
 10
-139.1352993022509
 20
146.0077308680519
 11
-142.8524801242428
 21
159.8780064426064
 72
     1
 10
-142.8524801242428
 20
159.8780064426064
 11
-135.4181356984373
 21
159.8780064426064
 97
        0
 75
     2
 76
     1
 98
        0
  0
ENDBLK
  5
314
330
311
100
AcDbEntity
  8
0
100
AcDbBlockEnd
  0
BLOCK
  5
31E
330
31C
100
AcDbEntity
  8
0
100
AcDbBlockBegin
  2
block 14
 70
     0
 10
0.0
 20
0.0
 30
0.0
  3
block 14
  1

  0
POLYLINE
  5
320
330
31C
100
AcDbEntity
  8
Layer 2
 62
     7
420
 16777215
370
    20
100
AcDb2dPolyline
 66
     1
 10
0.0
 20
0.0
 30
0.0
  0
VERTEX
  5
321
330
320
100
AcDbEntity
  8
Layer 2
 62
     7
420
 16777215
370
    20
100
AcDbVertex
100
AcDb2dVertex
 10
18.47284663676023
 20
157.8046623048837
 30
0.0
  0
VERTEX
  5
322
330
320
100
AcDbEntity
  8
Layer 2
 62
     7
420
 16777215
370
    20
100
AcDbVertex
100
AcDb2dVertex
 10
56.15348645678838
 20
208.1153523287482
 30
0.0
  0
VERTEX
  5
323
330
320
100
AcDbEntity
  8
Layer 2
 62
     7
420
 16777215
370
    20
100
AcDbVertex
100
AcDb2dVertex
 10
93.25025785641826
 20
208.1153523287482
 30
0.0
  0
SEQEND
  5
324
330
320
100
AcDbEntity
  8
Layer 2
 62
     7
420
 16777215
370
    20
  0
INSERT
  5
326
330
31C
100
AcDbEntity
  8
Layer 2
100
AcDbBlockReference
  2
block 15
 10
0.0
 20
0.0
 30
0.0
  0
ENDBLK
  5
31F
330
31C
100
AcDbEntity
  8
0
100
AcDbBlockEnd
  0
BLOCK
  5
327
330
325
100
AcDbEntity
  8
0
100
AcDbBlockBegin
  2
block 15
 70
     0
 10
0.0
 20
0.0
 30
0.0
  3
block 15
  1

  0
POLYLINE
  5
329
330
325
100
AcDbEntity
  8
Layer 2
370
     0
100
AcDb2dPolyline
 66
     1
 10
0.0
 20
0.0
 30
0.0
  0
VERTEX
  5
32A
330
329
100
AcDbEntity
  8
Layer 2
370
     0
100
AcDbVertex
100
AcDb2dVertex
 10
22.96782421942891
 20
157.605482420273
 30
0.0
  0
VERTEX
  5
32B
330
329
100
AcDbEntity
  8
Layer 2
370
     0
100
AcDbVertex
100
AcDb2dVertex
 10
11.67779594674993
 20
148.7319221390973
 30
0.0
  0
VERTEX
  5
32C
330
329
100
AcDbEntity
  8
Layer 2
370
     0
100
AcDbVertex
100
AcDb2dVertex
 10
17.01739403941629
 20
162.0620979020668
 30
0.0
  0
VERTEX
  5
32D
330
329
100
AcDbEntity
  8
Layer 2
370
     0
100
AcDbVertex
100
AcDb2dVertex
 10
22.96782421942891
 20
157.605482420273
 30
0.0
  0
SEQEND
  5
32F
330
329
100
AcDbEntity
  8
Layer 2
370
     0
  0
HATCH
  5
32E
330
325
100
AcDbEntity
  8
Layer 2
 62
     7
420
 16777215
100
AcDbHatch
 10
0.0
 20
0.0
 30
0.0
210
0.0
220
0.0
230
1.0
  2
SOLID
 70
     1
 71
     0
 91
        1
 92
        1
 93
        3
 72
     1
 10
22.96782421942891
 20
157.605482420273
 11
11.67779594674993
 21
148.7319221390973
 72
     1
 10
11.67779594674993
 20
148.7319221390973
 11
17.01739403941629
 21
162.0620979020668
 72
     1
 10
17.01739403941629
 20
162.0620979020668
 11
22.96782421942891
 21
157.605482420273
 97
        0
 75
     2
 76
     1
 98
        0
  0
ENDBLK
  5
328
330
325
100
AcDbEntity
  8
0
100
AcDbBlockEnd
  0
BLOCK
  5
332
330
330
100
AcDbEntity
  8
0
100
AcDbBlockBegin
  2
block 16
 70
     0
 10
0.0
 20
0.0
 30
0.0
  3
block 16
  1

  0
POLYLINE
  5
334
330
330
100
AcDbEntity
  8
Layer 2
 62
     7
420
 16777215
370
    20
100
AcDb2dPolyline
 66
     1
 10
0.0
 20
0.0
 30
0.0
  0
VERTEX
  5
335
330
334
100
AcDbEntity
  8
Layer 2
 62
     7
420
 16777215
370
    20
100
AcDbVertex
100
AcDb2dVertex
 10
341.4300125892675
 20
76.67287448509335
 30
0.0
  0
VERTEX
  5
336
330
334
100
AcDbEntity
  8
Layer 2
 62
     7
420
 16777215
370
    20
100
AcDbVertex
100
AcDb2dVertex
 10
219.5224876463118
 20
76.67287448509335
 30
0.0
  0
SEQEND
  5
337
330
334
100
AcDbEntity
  8
Layer 2
 62
     7
420
 16777215
370
    20
  0
INSERT
  5
339
330
330
100
AcDbEntity
  8
Layer 2
100
AcDbBlockReference
  2
block 17
 10
0.0
 20
0.0
 30
0.0
  0
ENDBLK
  5
333
330
330
100
AcDbEntity
  8
0
100
AcDbBlockEnd
  0
BLOCK
  5
33A
330
338
100
AcDbEntity
  8
0
100
AcDbBlockBegin
  2
block 17
 70
     0
 10
0.0
 20
0.0
 30
0.0
  3
block 17
  1

  0
POLYLINE
  5
33C
330
338
100
AcDbEntity
  8
Layer 2
370
     0
100
AcDb2dPolyline
 66
     1
 10
0.0
 20
0.0
 30
0.0
  0
VERTEX
  5
33D
330
33C
100
AcDbEntity
  8
Layer 2
370
     0
100
AcDbVertex
100
AcDb2dVertex
 10
338.8948769140902
 20
80.39000365255117
 30
0.0
  0
VERTEX
  5
33E
330
33C
100
AcDbEntity
  8
Layer 2
370
     0
100
AcDbVertex
100
AcDb2dVertex
 10
352.7652213613581
 20
76.67287448509335
 30
0.0
  0
VERTEX
  5
33F
330
33C
100
AcDbEntity
  8
Layer 2
370
     0
100
AcDbVertex
100
AcDb2dVertex
 10
338.8948769140902
 20
72.9556764449221
 30
0.0
  0
VERTEX
  5
340
330
33C
100
AcDbEntity
  8
Layer 2
370
     0
100
AcDbVertex
100
AcDb2dVertex
 10
338.8948769140902
 20
80.39000365255117
 30
0.0
  0
SEQEND
  5
342
330
33C
100
AcDbEntity
  8
Layer 2
370
     0
  0
HATCH
  5
341
330
338
100
AcDbEntity
  8
Layer 2
 62
     7
420
 16777215
100
AcDbHatch
 10
0.0
 20
0.0
 30
0.0
210
0.0
220
0.0
230
1.0
  2
SOLID
 70
     1
 71
     0
 91
        1
 92
        1
 93
        3
 72
     1
 10
338.8948769140902
 20
80.39000365255117
 11
352.7652213613581
 21
76.67287448509335
 72
     1
 10
352.7652213613581
 20
76.67287448509335
 11
338.8948769140902
 21
72.9556764449221
 72
     1
 10
338.8948769140902
 20
72.9556764449221
 11
338.8948769140902
 21
80.39000365255117
 97
        0
 75
     2
 76
     1
 98
        0
  0
ENDBLK
  5
33B
330
338
100
AcDbEntity
  8
0
100
AcDbBlockEnd
  0
BLOCK
  5
345
330
343
100
AcDbEntity
  8
0
100
AcDbBlockBegin
  2
block 18
 70
     0
 10
0.0
 20
0.0
 30
0.0
  3
block 18
  1

  0
POLYLINE
  5
347
330
343
100
AcDbEntity
  8
Layer 2
 62
     7
420
 16777215
370
    20
100
AcDb2dPolyline
 66
     1
 10
0.0
 20
0.0
 30
0.0
  0
VERTEX
  5
348
330
347
100
AcDbEntity
  8
Layer 2
 62
     7
420
 16777215
370
    20
100
AcDbVertex
100
AcDb2dVertex
 10
757.6781603050695
 20
32.80026788224475
 30
0.0
  0
VERTEX
  5
349
330
347
100
AcDbEntity
  8
Layer 2
 62
     7
420
 16777215
370
    20
100
AcDbVertex
100
AcDb2dVertex
 10
399.0751643876078
 20
32.80026788224475
 30
0.0
  0
SEQEND
  5
34A
330
347
100
AcDbEntity
  8
Layer 2
 62
     7
420
 16777215
370
    20
  0
INSERT
  5
34C
330
343
100
AcDbEntity
  8
Layer 2
100
AcDbBlockReference
  2
block 19
 10
0.0
 20
0.0
 30
0.0
  0
ENDBLK
  5
346
330
343
100
AcDbEntity
  8
0
100
AcDbBlockEnd
  0
BLOCK
  5
34D
330
34B
100
AcDbEntity
  8
0
100
AcDbBlockBegin
  2
block 19
 70
     0
 10
0.0
 20
0.0
 30
0.0
  3
block 19
  1

  0
POLYLINE
  5
34F
330
34B
100
AcDbEntity
  8
Layer 2
370
     0
100
AcDb2dPolyline
 66
     1
 10
0.0
 20
0.0
 30
0.0
  0
VERTEX
  5
350
330
34F
100
AcDbEntity
  8
Layer 2
370
     0
100
AcDbVertex
100
AcDb2dVertex
 10
755.1430246298895
 20
36.51739704970257
 30
0.0
  0
VERTEX
  5
351
330
34F
100
AcDbEntity
  8
Layer 2
370
     0
100
AcDbVertex
100
AcDb2dVertex
 10
769.0133690771626
 20
32.80026788224475
 30
0.0
  0
VERTEX
  5
352
330
34F
100
AcDbEntity
  8
Layer 2
370
     0
100
AcDbVertex
100
AcDb2dVertex
 10
755.1430246298895
 20
29.0830698420735
 30
0.0
  0
VERTEX
  5
353
330
34F
100
AcDbEntity
  8
Layer 2
370
     0
100
AcDbVertex
100
AcDb2dVertex
 10
755.1430246298895
 20
36.51739704970257
 30
0.0
  0
SEQEND
  5
355
330
34F
100
AcDbEntity
  8
Layer 2
370
     0
  0
HATCH
  5
354
330
34B
100
AcDbEntity
  8
Layer 2
 62
     7
420
 16777215
100
AcDbHatch
 10
0.0
 20
0.0
 30
0.0
210
0.0
220
0.0
230
1.0
  2
SOLID
 70
     1
 71
     0
 91
        1
 92
        1
 93
        3
 72
     1
 10
755.1430246298895
 20
36.51739704970257
 11
769.0133690771626
 21
32.80026788224475
 72
     1
 10
769.0133690771626
 20
32.80026788224475
 11
755.1430246298895
 21
29.0830698420735
 72
     1
 10
755.1430246298895
 20
29.0830698420735
 11
755.1430246298895
 21
36.51739704970257
 97
        0
 75
     2
 76
     1
 98
        0
  0
ENDBLK
  5
34E
330
34B
100
AcDbEntity
  8
0
100
AcDbBlockEnd
  0
BLOCK
  5
358
330
356
100
AcDbEntity
  8
0
100
AcDbBlockBegin
  2
block 20
 70
     0
 10
0.0
 20
0.0
 30
0.0
  3
block 20
  1

  0
POLYLINE
  5
35A
330
356
100
AcDbEntity
  8
Layer 2
 62
     7
420
 16777215
370
    20
100
AcDb2dPolyline
 66
     1
 10
0.0
 20
0.0
 30
0.0
  0
VERTEX
  5
35B
330
35A
100
AcDbEntity
  8
Layer 2
 62
     7
420
 16777215
370
    20
100
AcDbVertex
100
AcDb2dVertex
 10
-155.5804042733739
 20
-101.7360251581855
 30
0.0
  0
VERTEX
  5
35C
330
35A
100
AcDbEntity
  8
Layer 2
 62
     7
420
 16777215
370
    20
100
AcDbVertex
100
AcDb2dVertex
 10
-155.5804042733739
 20
-161.1746912632746
 30
0.0
  0
SEQEND
  5
35D
330
35A
100
AcDbEntity
  8
Layer 2
 62
     7
420
 16777215
370
    20
  0
INSERT
  5
35F
330
356
100
AcDbEntity
  8
Layer 2
100
AcDbBlockReference
  2
block 21
 10
0.0
 20
0.0
 30
0.0
  0
ENDBLK
  5
359
330
356
100
AcDbEntity
  8
0
100
AcDbBlockEnd
  0
BLOCK
  5
360
330
35E
100
AcDbEntity
  8
0
100
AcDbBlockBegin
  2
block 21
 70
     0
 10
0.0
 20
0.0
 30
0.0
  3
block 21
  1

  0
POLYLINE
  5
362
330
35E
100
AcDbEntity
  8
Layer 2
370
     0
100
AcDb2dPolyline
 66
     1
 10
0.0
 20
0.0
 30
0.0
  0
VERTEX
  5
363
330
362
100
AcDbEntity
  8
Layer 2
370
     0
100
AcDbVertex
100
AcDb2dVertex
 10
-159.2975850953671
 20
-104.2712297060737
 30
0.0
  0
VERTEX
  5
364
330
362
100
AcDbEntity
  8
Layer 2
370
     0
100
AcDbVertex
100
AcDb2dVertex
 10
-155.5804042733739
 20
-90.4008852588058
 30
0.0
  0
VERTEX
  5
365
330
362
100
AcDbEntity
  8
Layer 2
370
     0
100
AcDbVertex
100
AcDb2dVertex
 10
-151.863240669561
 20
-104.2712297060737
 30
0.0
  0
VERTEX
  5
366
330
362
100
AcDbEntity
  8
Layer 2
370
     0
100
AcDbVertex
100
AcDb2dVertex
 10
-159.2975850953671
 20
-104.2712297060737
 30
0.0
  0
SEQEND
  5
368
330
362
100
AcDbEntity
  8
Layer 2
370
     0
  0
HATCH
  5
367
330
35E
100
AcDbEntity
  8
Layer 2
 62
     7
420
 16777215
100
AcDbHatch
 10
0.0
 20
0.0
 30
0.0
210
0.0
220
0.0
230
1.0
  2
SOLID
 70
     1
 71
     0
 91
        1
 92
        1
 93
        3
 72
     1
 10
-159.2975850953671
 20
-104.2712297060737
 11
-155.5804042733739
 21
-90.4008852588058
 72
     1
 10
-155.5804042733739
 20
-90.4008852588058
 11
-151.863240669561
 21
-104.2712297060737
 72
     1
 10
-151.863240669561
 20
-104.2712297060737
 11
-159.2975850953671
 21
-104.2712297060737
 97
        0
 75
     2
 76
     1
 98
        0
  0
ENDBLK
  5
361
330
35E
100
AcDbEntity
  8
0
100
AcDbBlockEnd
  0
BLOCK
  5
36B
330
369
100
AcDbEntity
  8
0
100
AcDbBlockBegin
  2
block 22
 70
     0
 10
0.0
 20
0.0
 30
0.0
  3
block 22
  1

  0
POLYLINE
  5
36D
330
369
100
AcDbEntity
  8
Layer 2
 62
     7
420
 16777215
370
    20
100
AcDb2dPolyline
 66
     1
 10
0.0
 20
0.0
 30
0.0
  0
VERTEX
  5
36E
330
36D
100
AcDbEntity
  8
Layer 2
 62
     7
420
 16777215
370
    20
100
AcDbVertex
100
AcDb2dVertex
 10
-155.5804042733739
 20
-277.5755673493465
 30
0.0
  0
VERTEX
  5
36F
330
36D
100
AcDbEntity
  8
Layer 2
 62
     7
420
 16777215
370
    20
100
AcDbVertex
100
AcDb2dVertex
 10
-155.5804042733739
 20
-218.1369012442574
 30
0.0
  0
SEQEND
  5
370
330
36D
100
AcDbEntity
  8
Layer 2
 62
     7
420
 16777215
370
    20
  0
INSERT
  5
372
330
369
100
AcDbEntity
  8
Layer 2
100
AcDbBlockReference
  2
block 23
 10
0.0
 20
0.0
 30
0.0
  0
ENDBLK
  5
36C
330
369
100
AcDbEntity
  8
0
100
AcDbBlockEnd
  0
BLOCK
  5
373
330
371
100
AcDbEntity
  8
0
100
AcDbBlockBegin
  2
block 23
 70
     0
 10
0.0
 20
0.0
 30
0.0
  3
block 23
  1

  0
POLYLINE
  5
375
330
371
100
AcDbEntity
  8
Layer 2
370
     0
100
AcDb2dPolyline
 66
     1
 10
0.0
 20
0.0
 30
0.0
  0
VERTEX
  5
376
330
375
100
AcDbEntity
  8
Layer 2
370
     0
100
AcDbVertex
100
AcDb2dVertex
 10
-151.863240669561
 20
-275.0404316741718
 30
0.0
  0
VERTEX
  5
377
330
375
100
AcDbEntity
  8
Layer 2
370
     0
100
AcDbVertex
100
AcDb2dVertex
 10
-155.5804042733739
 20
-288.9107761214397
 30
0.0
  0
VERTEX
  5
378
330
375
100
AcDbEntity
  8
Layer 2
370
     0
100
AcDbVertex
100
AcDb2dVertex
 10
-159.2975850953671
 20
-275.0404316741718
 30
0.0
  0
VERTEX
  5
379
330
375
100
AcDbEntity
  8
Layer 2
370
     0
100
AcDbVertex
100
AcDb2dVertex
 10
-151.863240669561
 20
-275.0404316741718
 30
0.0
  0
SEQEND
  5
37B
330
375
100
AcDbEntity
  8
Layer 2
370
     0
  0
HATCH
  5
37A
330
371
100
AcDbEntity
  8
Layer 2
 62
     7
420
 16777215
100
AcDbHatch
 10
0.0
 20
0.0
 30
0.0
210
0.0
220
0.0
230
1.0
  2
SOLID
 70
     1
 71
     0
 91
        1
 92
        1
 93
        3
 72
     1
 10
-151.863240669561
 20
-275.0404316741718
 11
-155.5804042733739
 21
-288.9107761214397
 72
     1
 10
-155.5804042733739
 20
-288.9107761214397
 11
-159.2975850953671
 21
-275.0404316741718
 72
     1
 10
-159.2975850953671
 20
-275.0404316741718
 11
-151.863240669561
 21
-275.0404316741718
 97
        0
 75
     2
 76
     1
 98
        0
  0
ENDBLK
  5
374
330
371
100
AcDbEntity
  8
0
100
AcDbBlockEnd
  0
BLOCK
  5
37E
330
37C
100
AcDbEntity
  8
0
100
AcDbBlockBegin
  2
block 24
 70
     0
 10
0.0
 20
0.0
 30
0.0
  3
block 24
  1

  0
POLYLINE
  5
380
330
37C
100
AcDbEntity
  8
Layer 2
 62
     7
420
 16777215
370
    20
100
AcDb2dPolyline
 66
     1
 10
0.0
 20
0.0
 30
0.0
  0
VERTEX
  5
381
330
380
100
AcDbEntity
  8
Layer 2
 62
     7
420
 16777215
370
    20
100
AcDbVertex
100
AcDb2dVertex
 10
-182.0148302632628
 20
609.9750950537002
 30
0.0
  0
VERTEX
  5
382
330
380
100
AcDbEntity
  8
Layer 2
 62
     7
420
 16777215
370
    20
100
AcDbVertex
100
AcDb2dVertex
 10
-182.0148302632628
 20
382.1776341733109
 30
0.0
  0
SEQEND
  5
383
330
380
100
AcDbEntity
  8
Layer 2
 62
     7
420
 16777215
370
    20
  0
INSERT
  5
385
330
37C
100
AcDbEntity
  8
Layer 2
100
AcDbBlockReference
  2
block 25
 10
0.0
 20
0.0
 30
0.0
  0
ENDBLK
  5
37F
330
37C
100
AcDbEntity
  8
0
100
AcDbBlockEnd
  0
BLOCK
  5
386
330
384
100
AcDbEntity
  8
0
100
AcDbBlockBegin
  2
block 25
 70
     0
 10
0.0
 20
0.0
 30
0.0
  3
block 25
  1

  0
POLYLINE
  5
388
330
384
100
AcDbEntity
  8
Layer 2
370
     0
100
AcDb2dPolyline
 66
     1
 10
0.0
 20
0.0
 30
0.0
  0
VERTEX
  5
389
330
388
100
AcDbEntity
  8
Layer 2
370
     0
100
AcDbVertex
100
AcDb2dVertex
 10
-185.7319938670792
 20
607.4398905058107
 30
0.0
  0
VERTEX
  5
38A
330
388
100
AcDbEntity
  8
Layer 2
370
     0
100
AcDbVertex
100
AcDb2dVertex
 10
-182.0148302632628
 20
621.3103038257901
 30
0.0
  0
VERTEX
  5
38B
330
388
100
AcDbEntity
  8
Layer 2
370
     0
100
AcDbVertex
100
AcDb2dVertex
 10
-178.2976666594498
 20
607.4398905058107
 30
0.0
  0
VERTEX
  5
38C
330
388
100
AcDbEntity
  8
Layer 2
370
     0
100
AcDbVertex
100
AcDb2dVertex
 10
-185.7319938670792
 20
607.4398905058107
 30
0.0
  0
SEQEND
  5
38E
330
388
100
AcDbEntity
  8
Layer 2
370
     0
  0
HATCH
  5
38D
330
384
100
AcDbEntity
  8
Layer 2
 62
     7
420
 16777215
100
AcDbHatch
 10
0.0
 20
0.0
 30
0.0
210
0.0
220
0.0
230
1.0
  2
SOLID
 70
     1
 71
     0
 91
        1
 92
        1
 93
        3
 72
     1
 10
-185.7319938670792
 20
607.4398905058107
 11
-182.0148302632628
 21
621.3103038257901
 72
     1
 10
-182.0148302632628
 20
621.3103038257901
 11
-178.2976666594498
 21
607.4398905058107
 72
     1
 10
-178.2976666594498
 20
607.4398905058107
 11
-185.7319938670792
 21
607.4398905058107
 97
        0
 75
     2
 76
     1
 98
        0
  0
ENDBLK
  5
387
330
384
100
AcDbEntity
  8
0
100
AcDbBlockEnd
  0
BLOCK
  5
391
330
38F
100
AcDbEntity
  8
0
100
AcDbBlockBegin
  2
block 26
 70
     0
 10
0.0
 20
0.0
 30
0.0
  3
block 26
  1

  0
POLYLINE
  5
393
330
38F
100
AcDbEntity
  8
Layer 2
 62
     7
420
 16777215
370
    20
100
AcDb2dPolyline
 66
     1
 10
0.0
 20
0.0
 30
0.0
  0
VERTEX
  5
394
330
393
100
AcDbEntity
  8
Layer 2
 62
     7
420
 16777215
370
    20
100
AcDbVertex
100
AcDb2dVertex
 10
-182.0148646996198
 20
127.8397980322002
 30
0.0
  0
VERTEX
  5
395
330
393
100
AcDbEntity
  8
Layer 2
 62
     7
420
 16777215
370
    20
100
AcDbVertex
100
AcDb2dVertex
 10
-182.0148646996198
 20
310.5009757804072
 30
0.0
  0
SEQEND
  5
396
330
393
100
AcDbEntity
  8
Layer 2
 62
     7
420
 16777215
370
    20
  0
INSERT
  5
398
330
38F
100
AcDbEntity
  8
Layer 2
100
AcDbBlockReference
  2
block 27
 10
0.0
 20
0.0
 30
0.0
  0
ENDBLK
  5
392
330
38F
100
AcDbEntity
  8
0
100
AcDbBlockEnd
  0
BLOCK
  5
399
330
397
100
AcDbEntity
  8
0
100
AcDbBlockBegin
  2
block 27
 70
     0
 10
0.0
 20
0.0
 30
0.0
  3
block 27
  1

  0
POLYLINE
  5
39B
330
397
100
AcDbEntity
  8
Layer 2
370
     0
100
AcDb2dPolyline
 66
     1
 10
0.0
 20
0.0
 30
0.0
  0
VERTEX
  5
39C
330
39B
100
AcDbEntity
  8
Layer 2
370
     0
100
AcDbVertex
100
AcDb2dVertex
 10
-178.2977010958033
 20
130.3749337073775
 30
0.0
  0
VERTEX
  5
39D
330
39B
100
AcDbEntity
  8
Layer 2
370
     0
100
AcDbVertex
100
AcDb2dVertex
 10
-182.0148646996198
 20
116.5045892601096
 30
0.0
  0
VERTEX
  5
39E
330
39B
100
AcDbEntity
  8
Layer 2
370
     0
100
AcDbVertex
100
AcDb2dVertex
 10
-185.732045521613
 20
130.3749337073775
 30
0.0
  0
VERTEX
  5
39F
330
39B
100
AcDbEntity
  8
Layer 2
370
     0
100
AcDbVertex
100
AcDb2dVertex
 10
-178.2977010958033
 20
130.3749337073775
 30
0.0
  0
SEQEND
  5
3A1
330
39B
100
AcDbEntity
  8
Layer 2
370
     0
  0
HATCH
  5
3A0
330
397
100
AcDbEntity
  8
Layer 2
 62
     7
420
 16777215
100
AcDbHatch
 10
0.0
 20
0.0
 30
0.0
210
0.0
220
0.0
230
1.0
  2
SOLID
 70
     1
 71
     0
 91
        1
 92
        1
 93
        3
 72
     1
 10
-178.2977010958033
 20
130.3749337073775
 11
-182.0148646996198
 21
116.5045892601096
 72
     1
 10
-182.0148646996198
 20
116.5045892601096
 11
-185.732045521613
 21
130.3749337073775
 72
     1
 10
-185.732045521613
 20
130.3749337073775
 11
-178.2977010958033
 21
130.3749337073775
 97
        0
 75
     2
 76
     1
 98
        0
  0
ENDBLK
  5
39A
330
397
100
AcDbEntity
  8
0
100
AcDbBlockEnd
  0
BLOCK
  5
3A4
330
3A2
100
AcDbEntity
  8
0
100
AcDbBlockBegin
  2
block 28
 70
     0
 10
0.0
 20
0.0
 30
0.0
  3
block 28
  1

  0
POLYLINE
  5
3A6
330
3A2
100
AcDbEntity
  8
Layer 2
 62
     7
420
 16777215
370
    20
100
AcDb2dPolyline
 66
     1
 10
0.0
 20
0.0
 30
0.0
  0
VERTEX
  5
3A7
330
3A6
100
AcDbEntity
  8
Layer 2
 62
     7
420
 16777215
370
    20
100
AcDbVertex
100
AcDb2dVertex
 10
395.5153404955441
 20
76.67287448509335
 30
0.0
  0
VERTEX
  5
3A8
330
3A6
100
AcDbEntity
  8
Layer 2
 62
     7
420
 16777215
370
    20
100
AcDbVertex
100
AcDb2dVertex
 10
517.4228654385012
 20
76.67287448509335
 30
0.0
  0
SEQEND
  5
3A9
330
3A6
100
AcDbEntity
  8
Layer 2
 62
     7
420
 16777215
370
    20
  0
INSERT
  5
3AB
330
3A2
100
AcDbEntity
  8
Layer 2
100
AcDbBlockReference
  2
block 29
 10
0.0
 20
0.0
 30
0.0
  0
ENDBLK
  5
3A5
330
3A2
100
AcDbEntity
  8
0
100
AcDbBlockEnd
  0
BLOCK
  5
3AC
330
3AA
100
AcDbEntity
  8
0
100
AcDbBlockBegin
  2
block 29
 70
     0
 10
0.0
 20
0.0
 30
0.0
  3
block 29
  1

  0
POLYLINE
  5
3AE
330
3AA
100
AcDbEntity
  8
Layer 2
370
     0
100
AcDb2dPolyline
 66
     1
 10
0.0
 20
0.0
 30
0.0
  0
VERTEX
  5
3AF
330
3AE
100
AcDbEntity
  8
Layer 2
370
     0
100
AcDbVertex
100
AcDb2dVertex
 10
398.0505450434342
 20
72.9556764449221
 30
0.0
  0
VERTEX
  5
3B0
330
3AE
100
AcDbEntity
  8
Layer 2
370
     0
100
AcDbVertex
100
AcDb2dVertex
 10
384.180131723451
 20
76.67287448509335
 30
0.0
  0
VERTEX
  5
3B1
330
3AE
100
AcDbEntity
  8
Layer 2
370
     0
100
AcDbVertex
100
AcDb2dVertex
 10
398.0505450434342
 20
80.39000365255117
 30
0.0
  0
VERTEX
  5
3B2
330
3AE
100
AcDbEntity
  8
Layer 2
370
     0
100
AcDbVertex
100
AcDb2dVertex
 10
398.0505450434342
 20
72.9556764449221
 30
0.0
  0
SEQEND
  5
3B4
330
3AE
100
AcDbEntity
  8
Layer 2
370
     0
  0
HATCH
  5
3B3
330
3AA
100
AcDbEntity
  8
Layer 2
 62
     7
420
 16777215
100
AcDbHatch
 10
0.0
 20
0.0
 30
0.0
210
0.0
220
0.0
230
1.0
  2
SOLID
 70
     1
 71
     0
 91
        1
 92
        1
 93
        3
 72
     1
 10
398.0505450434342
 20
72.9556764449221
 11
384.180131723451
 21
76.67287448509335
 72
     1
 10
384.180131723451
 20
76.67287448509335
 11
398.0505450434342
 21
80.39000365255117
 72
     1
 10
398.0505450434342
 20
80.39000365255117
 11
398.0505450434342
 21
72.9556764449221
 97
        0
 75
     2
 76
     1
 98
        0
  0
ENDBLK
  5
3AD
330
3AA
100
AcDbEntity
  8
0
100
AcDbBlockEnd
  0
BLOCK
  5
3B7
330
3B5
100
AcDbEntity
  8
0
100
AcDbBlockBegin
  2
block 30
 70
     0
 10
0.0
 20
0.0
 30
0.0
  3
block 30
  1

  0
POLYLINE
  5
3B9
330
3B5
100
AcDbEntity
  8
Layer 2
 62
     7
420
 16777215
370
    20
100
AcDb2dPolyline
 66
     1
 10
0.0
 20
0.0
 30
0.0
  0
VERTEX
  5
3BA
330
3B9
100
AcDbEntity
  8
Layer 2
 62
     7
420
 16777215
370
    20
100
AcDbVertex
100
AcDb2dVertex
 10
727.0756724598707
 20
76.67287448509335
 30
0.0
  0
VERTEX
  5
3BB
330
3B9
100
AcDbEntity
  8
Layer 2
 62
     7
420
 16777215
370
    20
100
AcDbVertex
100
AcDb2dVertex
 10
605.1680786441996
 20
76.67287448509335
 30
0.0
  0
SEQEND
  5
3BC
330
3B9
100
AcDbEntity
  8
Layer 2
 62
     7
420
 16777215
370
    20
  0
INSERT
  5
3BE
330
3B5
100
AcDbEntity
  8
Layer 2
100
AcDbBlockReference
  2
block 31
 10
0.0
 20
0.0
 30
0.0
  0
ENDBLK
  5
3B8
330
3B5
100
AcDbEntity
  8
0
100
AcDbBlockEnd
  0
BLOCK
  5
3BF
330
3BD
100
AcDbEntity
  8
0
100
AcDbBlockBegin
  2
block 31
 70
     0
 10
0.0
 20
0.0
 30
0.0
  3
block 31
  1

  0
POLYLINE
  5
3C1
330
3BD
100
AcDbEntity
  8
Layer 2
370
     0
100
AcDb2dPolyline
 66
     1
 10
0.0
 20
0.0
 30
0.0
  0
VERTEX
  5
3C2
330
3C1
100
AcDbEntity
  8
Layer 2
370
     0
100
AcDbVertex
100
AcDb2dVertex
 10
724.5404679119774
 20
80.39000365255117
 30
0.0
  0
VERTEX
  5
3C3
330
3C1
100
AcDbEntity
  8
Layer 2
370
     0
100
AcDbVertex
100
AcDb2dVertex
 10
738.4108123592498
 20
76.67287448509335
 30
0.0
  0
VERTEX
  5
3C4
330
3C1
100
AcDbEntity
  8
Layer 2
370
     0
100
AcDbVertex
100
AcDb2dVertex
 10
724.5404679119774
 20
72.9556764449221
 30
0.0
  0
VERTEX
  5
3C5
330
3C1
100
AcDbEntity
  8
Layer 2
370
     0
100
AcDbVertex
100
AcDb2dVertex
 10
724.5404679119774
 20
80.39000365255117
 30
0.0
  0
SEQEND
  5
3C7
330
3C1
100
AcDbEntity
  8
Layer 2
370
     0
  0
HATCH
  5
3C6
330
3BD
100
AcDbEntity
  8
Layer 2
 62
     7
420
 16777215
100
AcDbHatch
 10
0.0
 20
0.0
 30
0.0
210
0.0
220
0.0
230
1.0
  2
SOLID
 70
     1
 71
     0
 91
        1
 92
        1
 93
        3
 72
     1
 10
724.5404679119774
 20
80.39000365255117
 11
738.4108123592498
 21
76.67287448509335
 72
     1
 10
738.4108123592498
 20
76.67287448509335
 11
724.5404679119774
 21
72.9556764449221
 72
     1
 10
724.5404679119774
 20
72.9556764449221
 11
724.5404679119774
 21
80.39000365255117
 97
        0
 75
     2
 76
     1
 98
        0
  0
ENDBLK
  5
3C0
330
3BD
100
AcDbEntity
  8
0
100
AcDbBlockEnd
  0
BLOCK
  5
3CA
330
3C8
100
AcDbEntity
  8
0
100
AcDbBlockBegin
  2
block 32
 70
     0
 10
0.0
 20
0.0
 30
0.0
  3
block 32
  1

  0
MTEXT
  5
3CC
330
3C8
100
AcDbEntity
  8
Layer 2
 62
     7
420
 16777215
100
AcDbMText
 10
968.01851850257
 20
-445.1674871391422
 30
0.0
 40
9.59555562313517
 41
0.0
 46
0.0
 71
     7
 72
     1
  1
\fFrutiger LT Std 55 Roman|b0|i0|c0|p34;\W1;CAD Drawing: AP1464
 73
     1
 44
1.0
  0
ENDBLK
  5
3CB
330
3C8
100
AcDbEntity
  8
0
100
AcDbBlockEnd
  0
BLOCK
  5
3CF
330
3CD
100
AcDbEntity
  8
0
100
AcDbBlockBegin
  2
block 33
 70
     0
 10
0.0
 20
0.0
 30
0.0
  3
block 33
  1

  0
SPLINE
  5
3D1
330
3CD
100
AcDbEntity
  8
Layer 2
370
     0
100
AcDbSpline
210
0.0
220
0.0
230
1.0
 70
    11
 71
     3
 72
    38
 73
    34
 74
     0
 42
0.0000000001
 43
0.0000000001
 12
1.0
 22
0.0
 32
0.0
 13
1.0
 23
0.0
 33
0.0
 40
0.0
 40
0.0
 40
0.0
 40
0.0
 40
1.0
 40
1.0
 40
1.0
 40
2.0
 40
2.0
 40
2.0
 40
3.0
 40
3.0
 40
3.0
 40
4.0
 40
4.0
 40
4.0
 40
5.0
 40
5.0
 40
5.0
 40
6.0
 40
6.0
 40
6.0
 40
7.0
 40
7.0
 40
7.0
 40
8.0
 40
8.0
 40
8.0
 40
9.0
 40
9.0
 40
9.0
 40
10.0
 40
10.0
 40
10.0
 40
11.0
 40
11.0
 40
11.0
 40
11.0
 10
1061.222402184814
 20
-415.8154848278799
 30
0.0
 10
1061.222402184814
 20
-415.8154848278799
 30
0.0
 10
1061.191396325446
 20
-415.6807815944065
 30
0.0
 10
1061.191396325446
 20
-415.6807815944065
 30
0.0
 10
1061.584826229862
 20
-414.9418086128205
 30
0.0
 10
1062.220790856439
 20
-414.6017776884263
 30
0.0
 10
1063.026943199987
 20
-415.0641095025468
 30
0.0
 10
1063.733876793561
 20
-415.4234329616584
 30
0.0
 10
1064.909343373128
 20
-414.6355396241818
 30
0.0
 10
1065.64934988336
 20
-414.4584617162399
 30
0.0
 10
1068.335835342757
 20
-413.4476707008676
 30
0.0
 10
1071.162880697954
 20
-412.7507278842016
 30
0.0
 10
1073.881750054913
 20
-411.7850676196861
 30
0.0
 10
1073.881750054913
 20
-411.7850676196861
 30
0.0
 10
1074.046425619108
 20
-411.7385588306352
 30
0.0
 10
1074.241418023573
 20
-411.7378698115381
 30
0.0
 10
1074.985558648387
 20
-411.7323576587617
 30
0.0
 10
1075.516792372212
 20
-412.4093189216133
 30
0.0
 10
1074.867736382791
 20
-413.0370153190258
 30
0.0
 10
1074.17665022845
 20
-413.7046748240672
 30
0.0
 10
1072.244640680322
 20
-414.3730233482057
 30
0.0
 10
1071.352360949642
 20
-414.8029712647649
 30
0.0
 10
1071.352360949642
 20
-414.8029712647649
 30
0.0
 10
1064.989958607483
 20
-417.2465774924526
 30
0.0
 10
1064.440810387134
 20
-417.493590838745
 30
0.0
 10
1064.334012427091
 20
-417.540788646893
 30
0.0
 10
1064.244439944475
 20
-417.597288212851
 30
0.0
 10
1064.158312557344
 20
-417.6606779697797
 30
0.0
 10
1064.158312557344
 20
-417.6606779697797
 30
0.0
 10
1063.889595109494
 20
-417.8642831129579
 30
0.0
 10
1063.889595109494
 20
-417.8642831129579
 30
0.0
 10
1062.630757219184
 20
-418.7699987160301
 30
0.0
 10
1061.439443200384
 20
-416.7942364552393
 30
0.0
 10
1061.222402184814
 20
-415.8154848278799
 30
0.0
  0
ENDBLK
  5
3D0
330
3CD
100
AcDbEntity
  8
0
100
AcDbBlockEnd
  0
BLOCK
  5
3D4
330
3D2
100
AcDbEntity
  8
0
100
AcDbBlockBegin
  2
block 34
 70
     0
 10
0.0
 20
0.0
 30
0.0
  3
block 34
  1

  0
SPLINE
  5
3D6
330
3D2
100
AcDbEntity
  8
Layer 2
370
     0
100
AcDbSpline
210
0.0
220
0.0
230
1.0
 70
    11
 71
     3
 72
    41
 73
    37
 74
     0
 42
0.0000000001
 43
0.0000000001
 12
1.0
 22
0.0
 32
0.0
 13
1.0
 23
0.0
 33
0.0
 40
0.0
 40
0.0
 40
0.0
 40
0.0
 40
1.0
 40
1.0
 40
1.0
 40
2.0
 40
2.0
 40
2.0
 40
3.0
 40
3.0
 40
3.0
 40
4.0
 40
4.0
 40
4.0
 40
5.0
 40
5.0
 40
5.0
 40
6.0
 40
6.0
 40
6.0
 40
7.0
 40
7.0
 40
7.0
 40
8.0
 40
8.0
 40
8.0
 40
9.0
 40
9.0
 40
9.0
 40
10.0
 40
10.0
 40
10.0
 40
11.0
 40
11.0
 40
11.0
 40
12.0
 40
12.0
 40
12.0
 40
12.0
 10
1061.222402184814
 20
-415.8154848278799
 30
0.0
 10
1061.222402184814
 20
-415.8154848278799
 30
0.0
 10
1061.191396325446
 20
-415.6807815944065
 30
0.0
 10
1061.191396325446
 20
-415.6807815944065
 30
0.0
 10
1061.584826229862
 20
-414.9418086128205
 30
0.0
 10
1062.220790856439
 20
-414.6017776884263
 30
0.0
 10
1063.026943199987
 20
-415.0641095025468
 30
0.0
 10
1063.733876793561
 20
-415.4234329616584
 30
0.0
 10
1064.909343373128
 20
-414.6355396241818
 30
0.0
 10
1065.64934988336
 20
-414.4584617162399
 30
0.0
 10
1068.335835342757
 20
-413.4476707008676
 30
0.0
 10
1071.162880697954
 20
-412.7507278842016
 30
0.0
 10
1073.881750054916
 20
-411.7850676196861
 30
0.0
 10
1073.881750054916
 20
-411.7850676196861
 30
0.0
 10
1074.046425619108
 20
-411.7385588306352
 30
0.0
 10
1074.241418023573
 20
-411.7378698115381
 30
0.0
 10
1074.98555864839
 20
-411.7323576587617
 30
0.0
 10
1075.516792372212
 20
-412.4093189216133
 30
0.0
 10
1074.867736382791
 20
-413.0370153190258
 30
0.0
 10
1074.176650228453
 20
-413.7046748240672
 30
0.0
 10
1072.244640680322
 20
-414.3730233482057
 30
0.0
 10
1071.352360949642
 20
-414.8029712647649
 30
0.0
 10
1071.352360949642
 20
-414.8029712647649
 30
0.0
 10
1064.989958607483
 20
-417.2465774924526
 30
0.0
 10
1064.440810387137
 20
-417.493590838745
 30
0.0
 10
1064.334012427095
 20
-417.540788646893
 30
0.0
 10
1064.244439944475
 20
-417.597288212851
 30
0.0
 10
1064.158312557347
 20
-417.6606779697797
 30
0.0
 10
1064.158312557347
 20
-417.6606779697797
 30
0.0
 10
1063.889595109494
 20
-417.8642831129579
 30
0.0
 10
1063.889595109494
 20
-417.8642831129579
 30
0.0
 10
1062.630757219184
 20
-418.7699987160301
 30
0.0
 10
1061.222402184814
 20
-415.8154848278799
 30
0.0
 10
1061.222402184814
 20
-415.8154848278799
 30
0.0
 10
1061.222402184814
 20
-415.8154848278799
 30
0.0
 10
1061.439443200384
 20
-416.7942364552393
 30
0.0
 10
1061.222402184814
 20
-415.8154848278799
 30
0.0
  0
HATCH
  5
3D7
330
3D2
100
AcDbEntity
  8
Layer 2
 62
   254
420
 14079702
100
AcDbHatch
 10
0.0
 20
0.0
 30
0.0
210
0.0
220
0.0
230
1.0
  2
SOLID
 70
     1
 71
     0
 91
        1
 92
        1
 93
        1
 72
     4
 94
        3
 73
     0
 74
     1
 95
       41
 96
       37
 40
0.0
 40
0.0
 40
0.0
 40
0.0
 40
1.0
 40
1.0
 40
1.0
 40
2.0
 40
2.0
 40
2.0
 40
3.0
 40
3.0
 40
3.0
 40
4.0
 40
4.0
 40
4.0
 40
5.0
 40
5.0
 40
5.0
 40
6.0
 40
6.0
 40
6.0
 40
7.0
 40
7.0
 40
7.0
 40
8.0
 40
8.0
 40
8.0
 40
9.0
 40
9.0
 40
9.0
 40
10.0
 40
10.0
 40
10.0
 40
11.0
 40
11.0
 40
11.0
 40
12.0
 40
12.0
 40
12.0
 40
12.0
 10
1061.222402184814
 20
-415.8154848278799
 10
1061.222402184814
 20
-415.8154848278799
 10
1061.191396325446
 20
-415.6807815944065
 10
1061.191396325446
 20
-415.6807815944065
 10
1061.584826229862
 20
-414.9418086128205
 10
1062.220790856439
 20
-414.6017776884263
 10
1063.026943199987
 20
-415.0641095025468
 10
1063.733876793561
 20
-415.4234329616584
 10
1064.909343373128
 20
-414.6355396241818
 10
1065.64934988336
 20
-414.4584617162399
 10
1068.335835342757
 20
-413.4476707008676
 10
1071.162880697954
 20
-412.7507278842016
 10
1073.881750054916
 20
-411.7850676196861
 10
1073.881750054916
 20
-411.7850676196861
 10
1074.046425619108
 20
-411.7385588306352
 10
1074.241418023573
 20
-411.7378698115381
 10
1074.98555864839
 20
-411.7323576587617
 10
1075.516792372212
 20
-412.4093189216133
 10
1074.867736382791
 20
-413.0370153190258
 10
1074.176650228453
 20
-413.7046748240672
 10
1072.244640680322
 20
-414.3730233482057
 10
1071.352360949642
 20
-414.8029712647649
 10
1071.352360949642
 20
-414.8029712647649
 10
1064.989958607483
 20
-417.2465774924526
 10
1064.440810387137
 20
-417.493590838745
 10
1064.334012427095
 20
-417.540788646893
 10
1064.244439944475
 20
-417.597288212851
 10
1064.158312557347
 20
-417.6606779697797
 10
1064.158312557347
 20
-417.6606779697797
 10
1063.889595109494
 20
-417.8642831129579
 10
1063.889595109494
 20
-417.8642831129579
 10
1062.630757219184
 20
-418.7699987160301
 10
1061.222402184814
 20
-415.8154848278799
 10
1061.222402184814
 20
-415.8154848278799
 10
1061.222402184814
 20
-415.8154848278799
 10
1061.439443200384
 20
-416.7942364552393
 10
1061.222402184814
 20
-415.8154848278799
 97
        0
 97
        0
 75
     2
 76
     1
 98
        0
  0
ENDBLK
  5
3D5
330
3D2
100
AcDbEntity
  8
0
100
AcDbBlockEnd
  0
BLOCK
  5
3DA
330
3D8
100
AcDbEntity
  8
0
100
AcDbBlockBegin
  2
block 35
 70
     0
 10
0.0
 20
0.0
 30
0.0
  3
block 35
  1

  0
SPLINE
  5
3DC
330
3D8
100
AcDbEntity
  8
Layer 2
370
     0
100
AcDbSpline
210
0.0
220
0.0
230
1.0
 70
    11
 71
     3
 72
    14
 73
    10
 74
     0
 42
0.0000000001
 43
0.0000000001
 12
1.0
 22
0.0
 32
0.0
 13
1.0
 23
0.0
 33
0.0
 40
0.0
 40
0.0
 40
0.0
 40
0.0
 40
1.0
 40
1.0
 40
1.0
 40
2.0
 40
2.0
 40
2.0
 40
3.0
 40
3.0
 40
3.0
 40
3.0
 10
1034.70688027304
 20
-410.295408331864
 30
0.0
 10
1034.491217295663
 20
-413.2278736089087
 30
0.0
 10
1033.287500933117
 20
-415.1684958957499
 30
0.0
 10
1031.852274153962
 20
-417.5903980218806
 30
0.0
 10
1031.870188650485
 20
-414.5487232179535
 30
0.0
 10
1032.283600108715
 20
-411.8270977846061
 30
0.0
 10
1034.152219899915
 20
-409.8540916002035
 30
0.0
 10
1034.391998545688
 20
-409.5271520386533
 30
0.0
 10
1034.76751395358
 20
-409.5839961141599
 30
0.0
 10
1034.70688027304
 20
-410.295408331864
 30
0.0
  0
ENDBLK
  5
3DB
330
3D8
100
AcDbEntity
  8
0
100
AcDbBlockEnd
  0
BLOCK
  5
3DF
330
3DD
100
AcDbEntity
  8
0
100
AcDbBlockBegin
  2
block 36
 70
     0
 10
0.0
 20
0.0
 30
0.0
  3
block 36
  1

  0
SPLINE
  5
3E1
330
3DD
100
AcDbEntity
  8
Layer 2
370
     0
100
AcDbSpline
210
0.0
220
0.0
230
1.0
 70
    11
 71
     3
 72
    14
 73
    10
 74
     0
 42
0.0000000001
 43
0.0000000001
 12
1.0
 22
0.0
 32
0.0
 13
1.0
 23
0.0
 33
0.0
 40
0.0
 40
0.0
 40
0.0
 40
0.0
 40
1.0
 40
1.0
 40
1.0
 40
2.0
 40
2.0
 40
2.0
 40
3.0
 40
3.0
 40
3.0
 40
3.0
 10
1063.939204484482
 20
-422.5489239538006
 30
0.0
 10
1063.929558217123
 20
-422.795248280996
 30
0.0
 10
1063.342513946436
 20
-423.4439597608686
 30
0.0
 10
1062.286247670659
 20
-423.6268943311353
 30
0.0
 10
1062.093322323485
 20
-422.3852819182513
 30
0.0
 10
1062.692768937918
 20
-421.6600893186062
 30
0.0
 10
1063.279813208605
 20
-421.6600893186062
 30
0.0
 10
1063.765571672025
 20
-421.6600893186062
 30
0.0
 10
1063.966076229267
 20
-421.8423348697759
 30
0.0
 10
1063.939204484482
 20
-422.5489239538006
 30
0.0
  0
ENDBLK
  5
3E0
330
3DD
100
AcDbEntity
  8
0
100
AcDbBlockEnd
  0
BLOCK
  5
3E4
330
3E2
100
AcDbEntity
  8
0
100
AcDbBlockBegin
  2
block 37
 70
     0
 10
0.0
 20
0.0
 30
0.0
  3
block 37
  1

  0
SPLINE
  5
3E6
330
3E2
100
AcDbEntity
  8
Layer 2
370
     0
100
AcDbSpline
210
0.0
220
0.0
230
1.0
 70
    11
 71
     3
 72
   200
 73
   196
 74
     0
 42
0.0000000001
 43
0.0000000001
 12
1.0
 22
0.0
 32
0.0
 13
1.0
 23
0.0
 33
0.0
 40
0.0
 40
0.0
 40
0.0
 40
0.0
 40
1.0
 40
1.0
 40
1.0
 40
2.0
 40
2.0
 40
2.0
 40
3.0
 40
3.0
 40
3.0
 40
4.0
 40
4.0
 40
4.0
 40
5.0
 40
5.0
 40
5.0
 40
6.0
 40
6.0
 40
6.0
 40
7.0
 40
7.0
 40
7.0
 40
8.0
 40
8.0
 40
8.0
 40
9.0
 40
9.0
 40
9.0
 40
10.0
 40
10.0
 40
10.0
 40
11.0
 40
11.0
 40
11.0
 40
12.0
 40
12.0
 40
12.0
 40
13.0
 40
13.0
 40
13.0
 40
14.0
 40
14.0
 40
14.0
 40
15.0
 40
15.0
 40
15.0
 40
16.0
 40
16.0
 40
16.0
 40
17.0
 40
17.0
 40
17.0
 40
18.0
 40
18.0
 40
18.0
 40
19.0
 40
19.0
 40
19.0
 40
20.0
 40
20.0
 40
20.0
 40
21.0
 40
21.0
 40
21.0
 40
22.0
 40
22.0
 40
22.0
 40
23.0
 40
23.0
 40
23.0
 40
24.0
 40
24.0
 40
24.0
 40
25.0
 40
25.0
 40
25.0
 40
26.0
 40
26.0
 40
26.0
 40
27.0
 40
27.0
 40
27.0
 40
28.0
 40
28.0
 40
28.0
 40
29.0
 40
29.0
 40
29.0
 40
30.0
 40
30.0
 40
30.0
 40
31.0
 40
31.0
 40
31.0
 40
32.0
 40
32.0
 40
32.0
 40
33.0
 40
33.0
 40
33.0
 40
34.0
 40
34.0
 40
34.0
 40
35.0
 40
35.0
 40
35.0
 40
36.0
 40
36.0
 40
36.0
 40
37.0
 40
37.0
 40
37.0
 40
38.0
 40
38.0
 40
38.0
 40
39.0
 40
39.0
 40
39.0
 40
40.0
 40
40.0
 40
40.0
 40
41.0
 40
41.0
 40
41.0
 40
42.0
 40
42.0
 40
42.0
 40
43.0
 40
43.0
 40
43.0
 40
44.0
 40
44.0
 40
44.0
 40
45.0
 40
45.0
 40
45.0
 40
46.0
 40
46.0
 40
46.0
 40
47.0
 40
47.0
 40
47.0
 40
48.0
 40
48.0
 40
48.0
 40
49.0
 40
49.0
 40
49.0
 40
50.0
 40
50.0
 40
50.0
 40
51.0
 40
51.0
 40
51.0
 40
52.0
 40
52.0
 40
52.0
 40
53.0
 40
53.0
 40
53.0
 40
54.0
 40
54.0
 40
54.0
 40
55.0
 40
55.0
 40
55.0
 40
56.0
 40
56.0
 40
56.0
 40
57.0
 40
57.0
 40
57.0
 40
58.0
 40
58.0
 40
58.0
 40
59.0
 40
59.0
 40
59.0
 40
60.0
 40
60.0
 40
60.0
 40
61.0
 40
61.0
 40
61.0
 40
62.0
 40
62.0
 40
62.0
 40
63.0
 40
63.0
 40
63.0
 40
64.0
 40
64.0
 40
64.0
 40
65.0
 40
65.0
 40
65.0
 40
65.0
 10
1071.736144586699
 20
-425.1337790963836
 30
0.0
 10
1071.736144586699
 20
-425.1337790963836
 30
0.0
 10
1071.96489892692
 20
-426.0887595648949
 30
0.0
 10
1071.96489892692
 20
-426.0887595648949
 30
0.0
 10
1072.09098942168
 20
-426.5841642956738
 30
0.0
 10
1072.236372451157
 20
-427.0444290525032
 30
0.0
 10
1072.479596192416
 20
-427.4974591088135
 30
0.0
 10
1074.022998969808
 20
-429.5627938522208
 30
0.0
 10
1077.96281016674
 20
-429.3261157923841
 30
0.0
 10
1079.981636121096
 20
-428.7001419427142
 30
0.0
 10
1081.099914115608
 20
-428.3525318082525
 30
0.0
 10
1082.174094887909
 20
-427.7782343908614
 30
0.0
 10
1083.181440807796
 20
-427.1794767955249
 30
0.0
 10
1085.749414982501
 20
-428.8675735832974
 30
0.0
 10
1088.992627872316
 20
-429.3898500588613
 30
0.0
 10
1092.242041934003
 20
-429.4025969121566
 30
0.0
 10
1095.563113981784
 20
-429.4149992559036
 30
0.0
 10
1098.953776958367
 20
-428.8923782707911
 30
0.0
 10
1101.740859205934
 20
-428.4865460226287
 30
0.0
 10
1104.705019361443
 20
-428.296376751843
 30
0.0
 10
1107.068354864324
 20
-426.8987015134771
 30
0.0
 10
1110.186855297573
 20
-427.5694616044552
 30
0.0
 10
1110.859337936293
 20
-427.344841378817
 30
0.0
 10
1111.389193621925
 20
-427.001709868486
 30
0.0
 10
1111.339584246937
 20
-426.1655851942159
 30
0.0
 10
1111.037793882429
 20
-425.4255786839843
 30
0.0
 10
1110.61955929052
 20
-424.9084698516482
 30
0.0
 10
1109.747950132752
 20
-424.8392234323947
 30
0.0
 10
1108.277583379647
 20
-425.4717429634866
 30
0.0
 10
1106.617736374854
 20
-425.284329769089
 30
0.0
 10
1105.082601826626
 20
-425.6612232151754
 30
0.0
 10
1101.180686680033
 20
-426.5707284232813
 30
0.0
 10
1097.026590543918
 20
-426.9276403155532
 30
0.0
 10
1092.611356170022
 20
-427.1667299422295
 30
0.0
 10
1089.873883297442
 20
-427.1436478024784
 30
0.0
 10
1086.413629392058
 20
-427.1012731280098
 30
0.0
 10
1084.505046493229
 20
-424.794092681538
 30
0.0
 10
1084.294206649532
 20
-424.0988724126145
 30
0.0
 10
1084.864714461889
 20
-423.1759313321161
 30
0.0
 10
1084.637338159863
 20
-422.1875334373979
 30
0.0
 10
1084.281115286688
 20
-421.4978253212509
 30
0.0
 10
1083.697516111487
 20
-421.0413501694553
 30
0.0
 10
1082.849333603018
 20
-421.2652813759966
 30
0.0
 10
1081.686269367198
 20
-422.105540164849
 30
0.0
 10
1081.70211680643
 20
-423.492191097662
 30
0.0
 10
1081.806158690084
 20
-424.7527515357149
 30
0.0
 10
1080.131842284253
 20
-426.9166160100004
 30
0.0
 10
1076.278158474453
 20
-427.8199200462329
 30
0.0
 10
1074.627957737018
 20
-426.1421585449162
 30
0.0
 10
1074.541830349887
 20
-425.8455358236362
 30
0.0
 10
1074.376465766595
 20
-425.263314686629
 30
0.0
 10
1074.544586426275
 20
-424.8350893178124
 30
0.0
 10
1074.55974484641
 20
-424.7834128855337
 30
0.0
 10
1074.575592285642
 20
-424.7272578291241
 30
0.0
 10
1074.58317149571
 20
-424.663523562647
 30
0.0
 10
1074.669298882841
 20
-424.0134340445803
 30
0.0
 10
1074.455702962755
 20
-423.526297542966
 30
0.0
 10
1073.861079482001
 20
-423.3151131897202
 30
0.0
 10
1072.730399143742
 20
-422.8999791837476
 30
0.0
 10
1072.797233996156
 20
-422.3925166187703
 30
0.0
 10
1071.996593805384
 20
-421.6859275347455
 30
0.0
 10
1071.173215984409
 20
-420.927662018442
 30
0.0
 10
1070.214101401316
 20
-421.2928421398785
 30
0.0
 10
1069.642215550764
 20
-422.0524856943761
 30
0.0
 10
1069.501655654966
 20
-424.0864700688676
 30
0.0
 10
1068.065050837617
 20
-425.75355177418
 30
0.0
 10
1066.485130048081
 20
-426.8487476289409
 30
0.0
 10
1065.475717070903
 20
-427.1977358015968
 30
0.0
 10
1064.210678008719
 20
-427.0823251028409
 30
0.0
 10
1063.384544111356
 20
-426.5218080673907
 30
0.0
 10
1063.110314510731
 20
-426.332327815702
 30
0.0
 10
1063.013851837144
 20
-426.1228660101988
 30
0.0
 10
1063.008339684367
 20
-425.9750714138816
 30
0.0
 10
1064.325744197927
 20
-425.6043791396687
 30
0.0
 10
1065.50672293027
 20
-424.7086543135038
 30
0.0
 10
1066.181272626282
 20
-423.4780662061725
 30
0.0
 10
1066.979845759763
 20
-421.3352168143471
 30
0.0
 10
1065.430930829595
 20
-419.0480179216897
 30
0.0
 10
1063.050369849287
 20
-419.3801251264678
 30
0.0
 10
1060.855155006086
 20
-419.6874276437521
 30
0.0
 10
1059.772706004621
 20
-421.2370315930175
 30
0.0
 10
1059.876747888275
 20
-423.9073251036347
 30
0.0
 10
1058.669586430243
 20
-423.85702670955
 30
0.0
 10
1057.587826447875
 20
-423.4553285759699
 30
0.0
 10
1056.466103357878
 20
-423.0040210674022
 30
0.0
 10
1055.504232698396
 20
-422.615414296666
 30
0.0
 10
1055.331977924134
 20
-421.712454769982
 30
0.0
 10
1053.931202099831
 20
-421.9739375173124
 30
0.0
 10
1052.829460563648
 20
-423.139068810424
 30
0.0
 10
1053.601850971441
 20
-423.9045690272465
 30
0.0
 10
1054.323942985149
 20
-424.8247540313567
 30
0.0
 10
1055.047413037052
 20
-425.7425274686273
 30
0.0
 10
1055.014340120393
 20
-427.1191876245331
 30
0.0
 10
1053.868501362
 20
-427.7696216521483
 30
0.0
 10
1052.225879834632
 20
-428.1589174419815
 30
0.0
 10
1050.851975755115
 20
-426.7209345864382
 30
0.0
 10
1049.852898064392
 20
-425.6550220433019
 30
0.0
 10
1049.865989427236
 20
-425.0194019262733
 30
0.0
 10
1049.884592942856
 20
-423.7857132330053
 30
0.0
 10
1049.721295416856
 20
-423.2420771654329
 30
0.0
 10
1049.396078403048
 20
-422.1510154252543
 30
0.0
 10
1048.691211866766
 20
-421.2142939628148
 30
0.0
 10
1047.397234002506
 20
-421.6466534462137
 30
0.0
 10
1046.589014601667
 20
-422.7215232376117
 30
0.0
 10
1046.898384176242
 20
-424.0089554204495
 30
0.0
 10
1047.341423455645
 20
-425.1055293134045
 30
0.0
 10
1046.979688429694
 20
-426.228630441596
 30
0.0
 10
1046.445009610383
 20
-427.3238262963569
 30
0.0
 10
1045.396322544673
 20
-427.8805537267733
 30
0.0
 10
1044.177447761992
 20
-428.1709752761798
 30
0.0
 10
1042.055268943078
 20
-427.8795201981277
 30
0.0
 10
1041.177458613436
 20
-425.7035978896439
 30
0.0
 10
1041.227757007521
 20
-425.4145543784314
 30
0.0
 10
1041.361426712348
 20
-424.5922100861023
 30
0.0
 10
1041.362804750542
 20
-423.754018354541
 30
0.0
 10
1041.364182788737
 20
-423.2365650126565
 30
0.0
 10
1041.315951451943
 20
-422.6767369963034
 30
0.0
 10
1041.149208830457
 20
-422.2202618445078
 30
0.0
 10
1040.603505705594
 20
-420.7371482381077
 30
0.0
 10
1038.379352060316
 20
-420.7526511677914
 30
0.0
 10
1038.38073009851
 20
-423.3033998650703
 30
0.0
 10
1038.38073009851
 20
-423.9135262755081
 30
0.0
 10
1038.471680619321
 20
-424.5253752336885
 30
0.0
 10
1038.61430757241
 20
-425.1165536189574
 30
0.0
 10
1037.729607051798
 20
-426.9338414874266
 30
0.0
 10
1035.908529578295
 20
-427.2986770993146
 30
0.0
 10
1034.62971013417
 20
-427.0540753198619
 30
0.0
 10
1032.752133094709
 20
-426.0959942654139
 30
0.0
 10
1032.145796289305
 20
-424.0533971522092
 30
0.0
 10
1031.880523936941
 20
-421.9505108680128
 30
0.0
 10
1033.224111176188
 20
-420.0984275351424
 30
0.0
 10
1034.356858571738
 20
-418.4757875615898
 30
0.0
 10
1035.528880055821
 20
-416.2216615855908
 30
0.0
 10
1036.873845333262
 20
-413.7229338301391
 30
0.0
 10
1037.394743770632
 20
-412.701118509214
 30
0.0
 10
1037.499474673383
 20
-409.6208586358521
 30
0.0
 10
1037.178391774158
 20
-405.8257414493009
 30
0.0
 10
1032.510287391645
 20
-406.9095684889605
 30
0.0
 10
1031.514654796407
 20
-408.9208152332494
 30
0.0
 10
1029.136849892488
 20
-412.64599698145
 30
0.0
 10
1028.726883529743
 20
-417.652409740615
 30
0.0
 10
1029.14580714075
 20
-421.8895326779238
 30
0.0
 10
1028.679341212047
 20
-422.7659649693714
 30
0.0
 10
1027.975852713959
 20
-423.4391366271892
 30
0.0
 10
1027.282699502327
 20
-424.1322898388215
 30
0.0
 10
1026.643289780264
 20
-424.6828160973644
 30
0.0
 10
1026.119635266506
 20
-424.8316442223272
 30
0.0
 10
1025.746186915905
 20
-425.6860279026691
 30
0.0
 10
1025.932222072109
 20
-426.0308819607426
 30
0.0
 10
1025.986654580775
 20
-426.0856589789581
 30
0.0
 10
1026.428315821984
 20
-426.3519648599679
 30
0.0
 10
1027.788439519561
 20
-426.7691659232317
 30
0.0
 10
1028.597347939498
 20
-425.9402759494806
 30
0.0
 10
1029.464133963587
 20
-425.1093189184383
 30
0.0
 10
1029.464133963587
 20
-425.1093189184383
 30
0.0
 10
1029.84171642877
 20
-424.7579191789428
 30
0.0
 10
1029.84171642877
 20
-424.7579191789428
 30
0.0
 10
1030.738130274032
 20
-426.6344626897584
 30
0.0
 10
1032.10721121987
 20
-428.7879918775881
 30
0.0
 10
1034.313450368624
 20
-429.4015633835111
 30
0.0
 10
1035.592269812749
 20
-429.6161928322422
 30
0.0
 10
1037.141184742917
 20
-429.6079246030775
 30
0.0
 10
1038.299425845058
 20
-428.8844545511751
 30
0.0
 10
1038.299425845058
 20
-428.8844545511751
 30
0.0
 10
1040.005437129354
 20
-427.7889141868657
 30
0.0
 10
1040.005437129354
 20
-427.7889141868657
 30
0.0
 10
1041.246360523141
 20
-429.2523907489998
 30
0.0
 10
1042.857287172044
 20
-430.4285463476641
 30
0.0
 10
1044.98360010554
 20
-430.2283862999711
 30
0.0
 10
1046.385753968037
 20
-430.1677526194306
 30
0.0
 10
1047.495074714287
 20
-429.1690194382567
 30
0.0
 10
1048.390799540452
 20
-428.1988805496104
 30
0.0
 10
1048.390799540452
 20
-428.1988805496104
 30
0.0
 10
1048.905496805949
 20
-427.6238941131222
 30
0.0
 10
1048.905496805949
 20
-427.6238941131222
 30
0.0
 10
1050.285602057339
 20
-429.075312841058
 30
0.0
 10
1051.893083610757
 20
-430.4282018381156
 30
0.0
 10
1054.298449278559
 20
-429.9827509918728
 30
0.0
 10
1055.772950146245
 20
-429.7922372115384
 30
0.0
 10
1056.557742897785
 20
-428.9781611483739
 30
0.0
 10
1057.133762862919
 20
-427.6879728891478
 30
0.0
 10
1057.405236387157
 20
-427.0564868867015
 30
0.0
 10
1057.326688210093
 20
-426.3678122992001
 30
0.0
 10
1057.258475319485
 20
-425.7087655328718
 30
0.0
 10
1058.260998105693
 20
-425.9671476942655
 30
0.0
 10
1059.300727923141
 20
-426.1810881238995
 30
0.0
 10
1060.336323626007
 20
-426.2203622124314
 30
0.0
 10
1060.690479441891
 20
-427.1360685924108
 30
0.0
 10
1061.316797801109
 20
-428.1995695687074
 30
0.0
 10
1062.240083391157
 20
-428.6250388611358
 30
0.0
 10
1064.238927791698
 20
-429.5459128843431
 30
0.0
 10
1064.351926923615
 20
-429.3943286829921
 30
0.0
 10
1066.231571020367
 20
-429.2947654234683
 30
0.0
 10
1068.630735516295
 20
-428.8493145772255
 30
0.0
 10
1070.393246366549
 20
-426.9755271427982
 30
0.0
 10
1071.736144586699
 20
-425.1337790963836
 30
0.0
  0
ENDBLK
  5
3E5
330
3E2
100
AcDbEntity
  8
0
100
AcDbBlockEnd
  0
BLOCK
  5
3E9
330
3E7
100
AcDbEntity
  8
0
100
AcDbBlockBegin
  2
block 38
 70
     0
 10
0.0
 20
0.0
 30
0.0
  3
block 38
  1

  0
SPLINE
  5
3EB
330
3E7
100
AcDbEntity
  8
Layer 2
370
     0
100
AcDbSpline
210
0.0
220
0.0
230
1.0
 70
    11
 71
     3
 72
    53
 73
    49
 74
     0
 42
0.0000000001
 43
0.0000000001
 12
1.0
 22
0.0
 32
0.0
 13
1.0
 23
0.0
 33
0.0
 40
0.0
 40
0.0
 40
0.0
 40
0.0
 40
1.0
 40
1.0
 40
1.0
 40
2.0
 40
2.0
 40
2.0
 40
3.0
 40
3.0
 40
3.0
 40
4.0
 40
4.0
 40
4.0
 40
5.0
 40
5.0
 40
5.0
 40
6.0
 40
6.0
 40
6.0
 40
7.0
 40
7.0
 40
7.0
 40
8.0
 40
8.0
 40
8.0
 40
9.0
 40
9.0
 40
9.0
 40
10.0
 40
10.0
 40
10.0
 40
11.0
 40
11.0
 40
11.0
 40
12.0
 40
12.0
 40
12.0
 40
13.0
 40
13.0
 40
13.0
 40
14.0
 40
14.0
 40
14.0
 40
15.0
 40
15.0
 40
15.0
 40
16.0
 40
16.0
 40
16.0
 40
16.0
 10
1013.164009184676
 20
-411.7681866518083
 30
0.0
 10
1013.164009184676
 20
-411.7681866518083
 30
0.0
 10
1012.654824071956
 20
-411.2972420989747
 30
0.0
 10
1012.654824071956
 20
-411.2972420989747
 30
0.0
 10
1012.654824071956
 20
-411.2972420989747
 30
0.0
 10
1013.145405669055
 20
-411.0602195295895
 30
0.0
 10
1013.145405669055
 20
-411.0602195295895
 30
0.0
 10
1013.916418038654
 20
-410.8128616737486
 30
0.0
 10
1014.752887222473
 20
-410.7511944645626
 30
0.0
 10
1015.144939088694
 20
-411.6462302716305
 30
0.0
 10
1015.240712743184
 20
-412.4313675327189
 30
0.0
 10
1014.913428672085
 20
-412.9054126714893
 30
0.0
 10
1014.357390260766
 20
-413.3946162303948
 30
0.0
 10
1013.16056408919
 20
-413.5034812477286
 30
0.0
 10
1012.358545860224
 20
-414.6062563125572
 30
0.0
 10
1011.618539349992
 20
-415.4327347194686
 30
0.0
 10
1010.764844688748
 20
-417.445014992403
 30
0.0
 10
1011.467644167739
 20
-419.8627830039513
 30
0.0
 10
1011.885878759648
 20
-421.8895326779238
 30
0.0
 10
1011.885878759648
 20
-421.8895326779238
 30
0.0
 10
1012.141504844653
 20
-422.1382685719589
 30
0.0
 10
1012.141504844653
 20
-422.1382685719589
 30
0.0
 10
1012.60245862058
 20
-422.5947437237544
 30
0.0
 10
1012.977285009375
 20
-423.0805021871747
 30
0.0
 10
1012.944212092717
 20
-423.7774450038407
 30
0.0
 10
1012.505306927896
 20
-424.9573902075388
 30
0.0
 10
1010.163331017023
 20
-425.5313431153814
 30
0.0
 10
1009.913906103891
 20
-423.6475649040468
 30
0.0
 10
1009.490159359205
 20
-422.8999791837476
 30
0.0
 10
1009.319971642234
 20
-422.3573766448208
 30
0.0
 10
1009.2111066249
 20
-421.8037498003411
 30
0.0
 10
1009.2111066249
 20
-421.8037498003411
 30
0.0
 10
1009.134625505127
 20
-421.3669116928114
 30
0.0
 10
1009.134625505127
 20
-421.3669116928114
 30
0.0
 10
1008.990620513844
 20
-422.4583179425385
 30
0.0
 10
1009.165631364495
 20
-423.7292136670472
 30
0.0
 10
1009.348221425213
 20
-424.8016718916055
 30
0.0
 10
1009.724425852202
 20
-426.2217402506255
 30
0.0
 10
1010.704211008207
 20
-427.3062563093821
 30
0.0
 10
1012.108431927995
 20
-427.876419612191
 30
0.0
 10
1015.326840130315
 20
-428.6395082621738
 30
0.0
 10
1017.981630711249
 20
-426.4408483234874
 30
0.0
 10
1019.817866604887
 20
-424.0620098909224
 30
0.0
 10
1022.709679755206
 20
-419.9323739327534
 30
0.0
 10
1025.277653929911
 20
-414.7547399279714
 30
0.0
 10
1022.941190171815
 20
-409.7521167738401
 30
0.0
 10
1020.152729886053
 20
-406.2629240663791
 30
0.0
 10
1014.682607274574
 20
-407.8834969826406
 30
0.0
 10
1013.164009184676
 20
-411.7681866518083
 30
0.0
  0
ENDBLK
  5
3EA
330
3E7
100
AcDbEntity
  8
0
100
AcDbBlockEnd
  0
BLOCK
  5
3EE
330
3EC
100
AcDbEntity
  8
0
100
AcDbBlockBegin
  2
block 39
 70
     0
 10
0.0
 20
0.0
 30
0.0
  3
block 39
  1

  0
SPLINE
  5
3F0
330
3EC
100
AcDbEntity
  8
Layer 2
370
     0
100
AcDbSpline
210
0.0
220
0.0
230
1.0
 70
    11
 71
     3
 72
    23
 73
    19
 74
     0
 42
0.0000000001
 43
0.0000000001
 12
1.0
 22
0.0
 32
0.0
 13
1.0
 23
0.0
 33
0.0
 40
0.0
 40
0.0
 40
0.0
 40
0.0
 40
1.0
 40
1.0
 40
1.0
 40
2.0
 40
2.0
 40
2.0
 40
3.0
 40
3.0
 40
3.0
 40
4.0
 40
4.0
 40
4.0
 40
5.0
 40
5.0
 40
5.0
 40
6.0
 40
6.0
 40
6.0
 40
6.0
 10
1021.8236011964
 20
-425.7687101943151
 30
0.0
 10
1019.558795424396
 20
-428.8441469339976
 30
0.0
 10
1015.869098159694
 20
-430.8936342381728
 30
0.0
 10
1011.9203297145
 20
-430.3375958268535
 30
0.0
 10
1009.136692562418
 20
-429.5962112784277
 30
0.0
 10
1007.334907623633
 20
-426.8918113225066
 30
0.0
 10
1006.874642866803
 20
-424.2321976078937
 30
0.0
 10
1006.313781321805
 20
-420.7554072441796
 30
0.0
 10
1007.256359446569
 20
-417.5890199836865
 30
0.0
 10
1009.092595340207
 20
-414.9717809435422
 30
0.0
 10
1009.64312159875
 20
-411.170118075569
 30
0.0
 10
1011.805263525293
 20
-407.5193503898497
 30
0.0
 10
1015.578332100739
 20
-405.8412443789845
 30
0.0
 10
1017.930643298067
 20
-404.9830710936088
 30
0.0
 10
1023.197505275917
 20
-404.6051441188769
 30
0.0
 10
1024.982064737277
 20
-408.4626175337111
 30
0.0
 10
1028.221832531606
 20
-414.4374466337799
 30
0.0
 10
1024.973107489015
 20
-420.9975974567926
 30
0.0
 10
1021.8236011964
 20
-425.7687101943151
 30
0.0
  0
ENDBLK
  5
3EF
330
3EC
100
AcDbEntity
  8
0
100
AcDbBlockEnd
  0
BLOCK
  5
3F3
330
3F1
100
AcDbEntity
  8
0
100
AcDbBlockBegin
  2
block 40
 70
     0
 10
0.0
 20
0.0
 30
0.0
  3
block 40
  1

  0
SPLINE
  5
3F5
330
3F1
100
AcDbEntity
  8
Layer 2
370
     0
100
AcDbSpline
210
0.0
220
0.0
230
1.0
 70
    11
 71
     3
 72
    17
 73
    13
 74
     0
 42
0.0000000001
 43
0.0000000001
 12
1.0
 22
0.0
 32
0.0
 13
1.0
 23
0.0
 33
0.0
 40
0.0
 40
0.0
 40
0.0
 40
0.0
 40
1.0
 40
1.0
 40
1.0
 40
2.0
 40
2.0
 40
2.0
 40
3.0
 40
3.0
 40
3.0
 40
4.0
 40
4.0
 40
4.0
 40
4.0
 10
1084.406516762351
 20
-418.7286575702071
 30
0.0
 10
1084.559479001896
 20
-418.2635696796984
 30
0.0
 10
1084.509869626909
 20
-417.644486020999
 30
0.0
 10
1084.2315059117
 20
-417.2162606521824
 30
0.0
 10
1083.629303220879
 20
-416.4583396454274
 30
0.0
 10
1082.468995061447
 20
-415.9198712210829
 30
0.0
 10
1081.748970105029
 20
-416.9130922494804
 30
0.0
 10
1081.386546059981
 20
-417.7995153178352
 30
0.0
 10
1081.658019584219
 20
-418.6818042716077
 30
0.0
 10
1082.369776311471
 20
-419.2902081343028
 30
0.0
 10
1083.126319280032
 20
-419.471420156827
 30
0.0
 10
1083.988282170442
 20
-419.6526321793511
 30
0.0
 10
1084.406516762351
 20
-418.7286575702071
 30
0.0
  0
ENDBLK
  5
3F4
330
3F1
100
AcDbEntity
  8
0
100
AcDbBlockEnd
  0
BLOCK
  5
3F8
330
3F6
100
AcDbEntity
  8
0
100
AcDbBlockBegin
  2
block 41
 70
     0
 10
0.0
 20
0.0
 30
0.0
  3
block 41
  1

  0
SPLINE
  5
3FA
330
3F6
100
AcDbEntity
  8
Layer 2
370
     0
100
AcDbSpline
210
0.0
220
0.0
230
1.0
 70
    11
 71
     3
 72
    17
 73
    13
 74
     0
 42
0.0000000001
 43
0.0000000001
 12
1.0
 22
0.0
 32
0.0
 13
1.0
 23
0.0
 33
0.0
 40
0.0
 40
0.0
 40
0.0
 40
0.0
 40
1.0
 40
1.0
 40
1.0
 40
2.0
 40
2.0
 40
2.0
 40
3.0
 40
3.0
 40
3.0
 40
4.0
 40
4.0
 40
4.0
 40
4.0
 10
1040.967996807933
 20
-417.3089337207356
 30
0.0
 10
1040.5787010181
 20
-417.8670391893461
 30
0.0
 10
1039.617519377715
 20
-417.8684172275402
 30
0.0
 10
1039.120736608742
 20
-417.665501103459
 30
0.0
 10
1038.402089690519
 20
-417.3723234776642
 30
0.0
 10
1037.719271765342
 20
-416.4242332001235
 30
0.0
 10
1038.245682355488
 20
-415.5074932914985
 30
0.0
 10
1038.833415645272
 20
-414.4842999323793
 30
0.0
 10
1040.052979447051
 20
-414.7654197239757
 30
0.0
 10
1040.682742901754
 20
-415.2783944417294
 30
0.0
 10
1041.077550844364
 20
-415.5994773409546
 30
0.0
 10
1041.493718378982
 20
-416.5572138858541
 30
0.0
 10
1040.967996807933
 20
-417.3089337207356
 30
0.0
  0
ENDBLK
  5
3F9
330
3F6
100
AcDbEntity
  8
0
100
AcDbBlockEnd
  0
BLOCK
  5
3FD
330
3FB
100
AcDbEntity
  8
0
100
AcDbBlockBegin
  2
block 42
 70
     0
 10
0.0
 20
0.0
 30
0.0
  3
block 42
  1

  0
SPLINE
  5
3FF
330
3FB
100
AcDbEntity
  8
Layer 2
370
     0
100
AcDbSpline
210
0.0
220
0.0
230
1.0
 70
    11
 71
     3
 72
    17
 73
    13
 74
     0
 42
0.0000000001
 43
0.0000000001
 12
1.0
 22
0.0
 32
0.0
 13
1.0
 23
0.0
 33
0.0
 40
0.0
 40
0.0
 40
0.0
 40
0.0
 40
1.0
 40
1.0
 40
1.0
 40
2.0
 40
2.0
 40
2.0
 40
3.0
 40
3.0
 40
3.0
 40
4.0
 40
4.0
 40
4.0
 40
4.0
 10
1034.706880273043
 20
-410.295408331864
 30
0.0
 10
1034.491217295667
 20
-413.2278736089087
 30
0.0
 10
1033.28750093312
 20
-415.1684958957499
 30
0.0
 10
1031.852274153962
 20
-417.5903980218806
 30
0.0
 10
1031.870188650485
 20
-414.5487232179535
 30
0.0
 10
1032.283600108718
 20
-411.8270977846061
 30
0.0
 10
1034.152219899915
 20
-409.8540916002035
 30
0.0
 10
1034.391998545688
 20
-409.5271520386533
 30
0.0
 10
1034.706880273043
 20
-410.295408331864
 30
0.0
 10
1034.706880273043
 20
-410.295408331864
 30
0.0
 10
1034.706880273043
 20
-410.295408331864
 30
0.0
 10
1034.76751395358
 20
-409.5839961141599
 30
0.0
 10
1034.706880273043
 20
-410.295408331864
 30
0.0
  0
SPLINE
  5
400
330
3FB
100
AcDbEntity
  8
Layer 2
370
     0
100
AcDbSpline
210
0.0
220
0.0
230
1.0
 70
    11
 71
     3
 72
    17
 73
    13
 74
     0
 42
0.0000000001
 43
0.0000000001
 12
1.0
 22
0.0
 32
0.0
 13
1.0
 23
0.0
 33
0.0
 40
0.0
 40
0.0
 40
0.0
 40
0.0
 40
1.0
 40
1.0
 40
1.0
 40
2.0
 40
2.0
 40
2.0
 40
3.0
 40
3.0
 40
3.0
 40
4.0
 40
4.0
 40
4.0
 40
4.0
 10
1063.939204484482
 20
-422.5489239538006
 30
0.0
 10
1063.929558217123
 20
-422.795248280996
 30
0.0
 10
1063.34251394644
 20
-423.4439597608686
 30
0.0
 10
1062.286247670659
 20
-423.6268943311353
 30
0.0
 10
1062.093322323488
 20
-422.3852819182513
 30
0.0
 10
1062.692768937918
 20
-421.6600893186062
 30
0.0
 10
1063.279813208608
 20
-421.6600893186062
 30
0.0
 10
1063.765571672025
 20
-421.6600893186062
 30
0.0
 10
1063.939204484482
 20
-422.5489239538006
 30
0.0
 10
1063.939204484482
 20
-422.5489239538006
 30
0.0
 10
1063.939204484482
 20
-422.5489239538006
 30
0.0
 10
1063.96607622927
 20
-421.8423348697759
 30
0.0
 10
1063.939204484482
 20
-422.5489239538006
 30
0.0
  0
SPLINE
  5
401
330
3FB
100
AcDbEntity
  8
Layer 2
370
     0
100
AcDbSpline
210
0.0
220
0.0
230
1.0
 70
    11
 71
     3
 72
   203
 73
   199
 74
     0
 42
0.0000000001
 43
0.0000000001
 12
1.0
 22
0.0
 32
0.0
 13
1.0
 23
0.0
 33
0.0
 40
0.0
 40
0.0
 40
0.0
 40
0.0
 40
1.0
 40
1.0
 40
1.0
 40
2.0
 40
2.0
 40
2.0
 40
3.0
 40
3.0
 40
3.0
 40
4.0
 40
4.0
 40
4.0
 40
5.0
 40
5.0
 40
5.0
 40
6.0
 40
6.0
 40
6.0
 40
7.0
 40
7.0
 40
7.0
 40
8.0
 40
8.0
 40
8.0
 40
9.0
 40
9.0
 40
9.0
 40
10.0
 40
10.0
 40
10.0
 40
11.0
 40
11.0
 40
11.0
 40
12.0
 40
12.0
 40
12.0
 40
13.0
 40
13.0
 40
13.0
 40
14.0
 40
14.0
 40
14.0
 40
15.0
 40
15.0
 40
15.0
 40
16.0
 40
16.0
 40
16.0
 40
17.0
 40
17.0
 40
17.0
 40
18.0
 40
18.0
 40
18.0
 40
19.0
 40
19.0
 40
19.0
 40
20.0
 40
20.0
 40
20.0
 40
21.0
 40
21.0
 40
21.0
 40
22.0
 40
22.0
 40
22.0
 40
23.0
 40
23.0
 40
23.0
 40
24.0
 40
24.0
 40
24.0
 40
25.0
 40
25.0
 40
25.0
 40
26.0
 40
26.0
 40
26.0
 40
27.0
 40
27.0
 40
27.0
 40
28.0
 40
28.0
 40
28.0
 40
29.0
 40
29.0
 40
29.0
 40
30.0
 40
30.0
 40
30.0
 40
31.0
 40
31.0
 40
31.0
 40
32.0
 40
32.0
 40
32.0
 40
33.0
 40
33.0
 40
33.0
 40
34.0
 40
34.0
 40
34.0
 40
35.0
 40
35.0
 40
35.0
 40
36.0
 40
36.0
 40
36.0
 40
37.0
 40
37.0
 40
37.0
 40
38.0
 40
38.0
 40
38.0
 40
39.0
 40
39.0
 40
39.0
 40
40.0
 40
40.0
 40
40.0
 40
41.0
 40
41.0
 40
41.0
 40
42.0
 40
42.0
 40
42.0
 40
43.0
 40
43.0
 40
43.0
 40
44.0
 40
44.0
 40
44.0
 40
45.0
 40
45.0
 40
45.0
 40
46.0
 40
46.0
 40
46.0
 40
47.0
 40
47.0
 40
47.0
 40
48.0
 40
48.0
 40
48.0
 40
49.0
 40
49.0
 40
49.0
 40
50.0
 40
50.0
 40
50.0
 40
51.0
 40
51.0
 40
51.0
 40
52.0
 40
52.0
 40
52.0
 40
53.0
 40
53.0
 40
53.0
 40
54.0
 40
54.0
 40
54.0
 40
55.0
 40
55.0
 40
55.0
 40
56.0
 40
56.0
 40
56.0
 40
57.0
 40
57.0
 40
57.0
 40
58.0
 40
58.0
 40
58.0
 40
59.0
 40
59.0
 40
59.0
 40
60.0
 40
60.0
 40
60.0
 40
61.0
 40
61.0
 40
61.0
 40
62.0
 40
62.0
 40
62.0
 40
63.0
 40
63.0
 40
63.0
 40
64.0
 40
64.0
 40
64.0
 40
65.0
 40
65.0
 40
65.0
 40
66.0
 40
66.0
 40
66.0
 40
66.0
 10
1071.736144586699
 20
-425.1337790963836
 30
0.0
 10
1071.736144586699
 20
-425.1337790963836
 30
0.0
 10
1071.964898926923
 20
-426.0887595648949
 30
0.0
 10
1071.964898926923
 20
-426.0887595648949
 30
0.0
 10
1072.09098942168
 20
-426.5841642956738
 30
0.0
 10
1072.236372451157
 20
-427.0444290525032
 30
0.0
 10
1072.479596192419
 20
-427.4974591088135
 30
0.0
 10
1074.022998969811
 20
-429.5627938522208
 30
0.0
 10
1077.96281016674
 20
-429.3261157923841
 30
0.0
 10
1079.981636121096
 20
-428.7001419427142
 30
0.0
 10
1081.099914115608
 20
-428.3525318082525
 30
0.0
 10
1082.174094887909
 20
-427.7782343908614
 30
0.0
 10
1083.181440807796
 20
-427.1794767955249
 30
0.0
 10
1085.749414982501
 20
-428.8675735832974
 30
0.0
 10
1088.992627872316
 20
-429.3898500588613
 30
0.0
 10
1092.242041934003
 20
-429.4025969121566
 30
0.0
 10
1095.563113981787
 20
-429.4149992559036
 30
0.0
 10
1098.953776958367
 20
-428.8923782707911
 30
0.0
 10
1101.740859205934
 20
-428.4865460226287
 30
0.0
 10
1104.705019361443
 20
-428.296376751843
 30
0.0
 10
1107.068354864324
 20
-426.8987015134771
 30
0.0
 10
1110.186855297576
 20
-427.5694616044552
 30
0.0
 10
1110.859337936293
 20
-427.344841378817
 30
0.0
 10
1111.389193621928
 20
-427.001709868486
 30
0.0
 10
1111.339584246937
 20
-426.1655851942159
 30
0.0
 10
1111.037793882429
 20
-425.4255786839843
 30
0.0
 10
1110.61955929052
 20
-424.9084698516482
 30
0.0
 10
1109.747950132752
 20
-424.8392234323947
 30
0.0
 10
1108.277583379647
 20
-425.4717429634866
 30
0.0
 10
1106.617736374854
 20
-425.284329769089
 30
0.0
 10
1105.082601826626
 20
-425.6612232151754
 30
0.0
 10
1101.180686680033
 20
-426.5707284232813
 30
0.0
 10
1097.026590543918
 20
-426.9276403155532
 30
0.0
 10
1092.611356170022
 20
-427.1667299422295
 30
0.0
 10
1089.873883297442
 20
-427.1436478024784
 30
0.0
 10
1086.413629392058
 20
-427.1012731280098
 30
0.0
 10
1084.505046493232
 20
-424.794092681538
 30
0.0
 10
1084.294206649532
 20
-424.0988724126145
 30
0.0
 10
1084.864714461889
 20
-423.1759313321161
 30
0.0
 10
1084.637338159866
 20
-422.1875334373979
 30
0.0
 10
1084.281115286691
 20
-421.4978253212509
 30
0.0
 10
1083.69751611149
 20
-421.0413501694553
 30
0.0
 10
1082.849333603018
 20
-421.2652813759966
 30
0.0
 10
1081.686269367198
 20
-422.105540164849
 30
0.0
 10
1081.702116806433
 20
-423.492191097662
 30
0.0
 10
1081.806158690088
 20
-424.7527515357149
 30
0.0
 10
1080.131842284256
 20
-426.9166160100004
 30
0.0
 10
1076.278158474453
 20
-427.8199200462329
 30
0.0
 10
1074.627957737018
 20
-426.1421585449162
 30
0.0
 10
1074.54183034989
 20
-425.8455358236362
 30
0.0
 10
1074.376465766598
 20
-425.263314686629
 30
0.0
 10
1074.544586426275
 20
-424.8350893178124
 30
0.0
 10
1074.55974484641
 20
-424.7834128855337
 30
0.0
 10
1074.575592285642
 20
-424.7272578291241
 30
0.0
 10
1074.58317149571
 20
-424.663523562647
 30
0.0
 10
1074.669298882841
 20
-424.0134340445803
 30
0.0
 10
1074.455702962755
 20
-423.526297542966
 30
0.0
 10
1073.861079482001
 20
-423.3151131897202
 30
0.0
 10
1072.730399143745
 20
-422.8999791837476
 30
0.0
 10
1072.797233996156
 20
-422.3925166187703
 30
0.0
 10
1071.996593805384
 20
-421.6859275347455
 30
0.0
 10
1071.173215984413
 20
-420.927662018442
 30
0.0
 10
1070.214101401316
 20
-421.2928421398785
 30
0.0
 10
1069.642215550764
 20
-422.0524856943761
 30
0.0
 10
1069.501655654969
 20
-424.0864700688676
 30
0.0
 10
1068.065050837617
 20
-425.75355177418
 30
0.0
 10
1066.485130048081
 20
-426.8487476289409
 30
0.0
 10
1065.475717070903
 20
-427.1977358015968
 30
0.0
 10
1064.210678008719
 20
-427.0823251028409
 30
0.0
 10
1063.384544111356
 20
-426.5218080673907
 30
0.0
 10
1063.110314510734
 20
-426.332327815702
 30
0.0
 10
1063.013851837144
 20
-426.1228660101988
 30
0.0
 10
1063.008339684367
 20
-425.9750714138816
 30
0.0
 10
1064.325744197927
 20
-425.6043791396687
 30
0.0
 10
1065.50672293027
 20
-424.7086543135038
 30
0.0
 10
1066.181272626286
 20
-423.4780662061725
 30
0.0
 10
1066.979845759766
 20
-421.3352168143471
 30
0.0
 10
1065.430930829598
 20
-419.0480179216897
 30
0.0
 10
1063.050369849291
 20
-419.3801251264678
 30
0.0
 10
1060.855155006089
 20
-419.6874276437521
 30
0.0
 10
1059.772706004624
 20
-421.2370315930175
 30
0.0
 10
1059.876747888278
 20
-423.9073251036347
 30
0.0
 10
1058.669586430243
 20
-423.85702670955
 30
0.0
 10
1057.587826447875
 20
-423.4553285759699
 30
0.0
 10
1056.466103357878
 20
-423.0040210674022
 30
0.0
 10
1055.504232698396
 20
-422.615414296666
 30
0.0
 10
1055.331977924134
 20
-421.712454769982
 30
0.0
 10
1053.931202099831
 20
-421.9739375173124
 30
0.0
 10
1052.829460563651
 20
-423.139068810424
 30
0.0
 10
1053.601850971441
 20
-423.9045690272465
 30
0.0
 10
1054.323942985149
 20
-424.8247540313567
 30
0.0
 10
1055.047413037055
 20
-425.7425274686273
 30
0.0
 10
1055.014340120393
 20
-427.1191876245331
 30
0.0
 10
1053.868501362
 20
-427.7696216521483
 30
0.0
 10
1052.225879834635
 20
-428.1589174419815
 30
0.0
 10
1050.851975755115
 20
-426.7209345864382
 30
0.0
 10
1049.852898064396
 20
-425.6550220433019
 30
0.0
 10
1049.865989427236
 20
-425.0194019262733
 30
0.0
 10
1049.884592942856
 20
-423.7857132330053
 30
0.0
 10
1049.721295416859
 20
-423.2420771654329
 30
0.0
 10
1049.396078403051
 20
-422.1510154252543
 30
0.0
 10
1048.691211866766
 20
-421.2142939628148
 30
0.0
 10
1047.397234002506
 20
-421.6466534462137
 30
0.0
 10
1046.589014601667
 20
-422.7215232376117
 30
0.0
 10
1046.898384176242
 20
-424.0089554204495
 30
0.0
 10
1047.341423455645
 20
-425.1055293134045
 30
0.0
 10
1046.979688429694
 20
-426.228630441596
 30
0.0
 10
1046.445009610383
 20
-427.3238262963569
 30
0.0
 10
1045.396322544673
 20
-427.8805537267733
 30
0.0
 10
1044.177447761995
 20
-428.1709752761798
 30
0.0
 10
1042.055268943081
 20
-427.8795201981277
 30
0.0
 10
1041.177458613436
 20
-425.7035978896439
 30
0.0
 10
1041.227757007524
 20
-425.4145543784314
 30
0.0
 10
1041.361426712348
 20
-424.5922100861023
 30
0.0
 10
1041.362804750542
 20
-423.754018354541
 30
0.0
 10
1041.364182788737
 20
-423.2365650126565
 30
0.0
 10
1041.315951451943
 20
-422.6767369963034
 30
0.0
 10
1041.14920883046
 20
-422.2202618445078
 30
0.0
 10
1040.603505705594
 20
-420.7371482381077
 30
0.0
 10
1038.379352060319
 20
-420.7526511677914
 30
0.0
 10
1038.38073009851
 20
-423.3033998650703
 30
0.0
 10
1038.38073009851
 20
-423.9135262755081
 30
0.0
 10
1038.471680619321
 20
-424.5253752336885
 30
0.0
 10
1038.61430757241
 20
-425.1165536189574
 30
0.0
 10
1037.729607051798
 20
-426.9338414874266
 30
0.0
 10
1035.908529578295
 20
-427.2986770993146
 30
0.0
 10
1034.629710134173
 20
-427.0540753198619
 30
0.0
 10
1032.752133094709
 20
-426.0959942654139
 30
0.0
 10
1032.145796289305
 20
-424.0533971522092
 30
0.0
 10
1031.880523936941
 20
-421.9505108680128
 30
0.0
 10
1033.224111176188
 20
-420.0984275351424
 30
0.0
 10
1034.356858571738
 20
-418.4757875615898
 30
0.0
 10
1035.528880055821
 20
-416.2216615855908
 30
0.0
 10
1036.873845333262
 20
-413.7229338301391
 30
0.0
 10
1037.394743770632
 20
-412.701118509214
 30
0.0
 10
1037.499474673387
 20
-409.6208586358521
 30
0.0
 10
1037.178391774161
 20
-405.8257414493009
 30
0.0
 10
1032.510287391648
 20
-406.9095684889605
 30
0.0
 10
1031.51465479641
 20
-408.9208152332494
 30
0.0
 10
1029.136849892491
 20
-412.64599698145
 30
0.0
 10
1028.726883529743
 20
-417.652409740615
 30
0.0
 10
1029.145807140753
 20
-421.8895326779238
 30
0.0
 10
1028.67934121205
 20
-422.7659649693714
 30
0.0
 10
1027.975852713962
 20
-423.4391366271892
 30
0.0
 10
1027.28269950233
 20
-424.1322898388215
 30
0.0
 10
1026.643289780264
 20
-424.6828160973644
 30
0.0
 10
1026.119635266506
 20
-424.8316442223272
 30
0.0
 10
1025.746186915905
 20
-425.6860279026691
 30
0.0
 10
1025.932222072112
 20
-426.0308819607426
 30
0.0
 10
1025.986654580775
 20
-426.0856589789581
 30
0.0
 10
1026.428315821984
 20
-426.3519648599679
 30
0.0
 10
1027.788439519561
 20
-426.7691659232317
 30
0.0
 10
1028.597347939498
 20
-425.9402759494806
 30
0.0
 10
1029.464133963587
 20
-425.1093189184383
 30
0.0
 10
1029.464133963587
 20
-425.1093189184383
 30
0.0
 10
1029.841716428773
 20
-424.7579191789428
 30
0.0
 10
1029.841716428773
 20
-424.7579191789428
 30
0.0
 10
1030.738130274032
 20
-426.6344626897584
 30
0.0
 10
1032.10721121987
 20
-428.7879918775881
 30
0.0
 10
1034.313450368624
 20
-429.4015633835111
 30
0.0
 10
1035.592269812752
 20
-429.6161928322422
 30
0.0
 10
1037.141184742917
 20
-429.6079246030775
 30
0.0
 10
1038.299425845061
 20
-428.8844545511751
 30
0.0
 10
1038.299425845061
 20
-428.8844545511751
 30
0.0
 10
1040.005437129357
 20
-427.7889141868657
 30
0.0
 10
1040.005437129357
 20
-427.7889141868657
 30
0.0
 10
1041.246360523144
 20
-429.2523907489998
 30
0.0
 10
1042.857287172044
 20
-430.4285463476641
 30
0.0
 10
1044.98360010554
 20
-430.2283862999711
 30
0.0
 10
1046.385753968037
 20
-430.1677526194306
 30
0.0
 10
1047.49507471429
 20
-429.1690194382567
 30
0.0
 10
1048.390799540455
 20
-428.1988805496104
 30
0.0
 10
1048.390799540455
 20
-428.1988805496104
 30
0.0
 10
1048.905496805952
 20
-427.6238941131222
 30
0.0
 10
1048.905496805952
 20
-427.6238941131222
 30
0.0
 10
1050.285602057339
 20
-429.075312841058
 30
0.0
 10
1051.893083610757
 20
-430.4282018381156
 30
0.0
 10
1054.298449278562
 20
-429.9827509918728
 30
0.0
 10
1055.772950146245
 20
-429.7922372115384
 30
0.0
 10
1056.557742897789
 20
-428.9781611483739
 30
0.0
 10
1057.133762862919
 20
-427.6879728891478
 30
0.0
 10
1057.40523638716
 20
-427.0564868867015
 30
0.0
 10
1057.326688210096
 20
-426.3678122992001
 30
0.0
 10
1057.258475319485
 20
-425.7087655328718
 30
0.0
 10
1058.260998105696
 20
-425.9671476942655
 30
0.0
 10
1059.300727923145
 20
-426.1810881238995
 30
0.0
 10
1060.336323626007
 20
-426.2203622124314
 30
0.0
 10
1060.690479441891
 20
-427.1360685924108
 30
0.0
 10
1061.316797801109
 20
-428.1995695687074
 30
0.0
 10
1062.24008339116
 20
-428.6250388611358
 30
0.0
 10
1064.238927791698
 20
-429.5459128843431
 30
0.0
 10
1064.351926923615
 20
-429.3943286829921
 30
0.0
 10
1066.231571020367
 20
-429.2947654234683
 30
0.0
 10
1068.630735516295
 20
-428.8493145772255
 30
0.0
 10
1071.736144586699
 20
-425.1337790963836
 30
0.0
 10
1071.736144586699
 20
-425.1337790963836
 30
0.0
 10
1071.736144586699
 20
-425.1337790963836
 30
0.0
 10
1070.393246366549
 20
-426.9755271427982
 30
0.0
 10
1071.736144586699
 20
-425.1337790963836
 30
0.0
  0
SPLINE
  5
402
330
3FB
100
AcDbEntity
  8
Layer 2
370
     0
100
AcDbSpline
210
0.0
220
0.0
230
1.0
 70
    11
 71
     3
 72
    56
 73
    52
 74
     0
 42
0.0000000001
 43
0.0000000001
 12
1.0
 22
0.0
 32
0.0
 13
1.0
 23
0.0
 33
0.0
 40
0.0
 40
0.0
 40
0.0
 40
0.0
 40
1.0
 40
1.0
 40
1.0
 40
2.0
 40
2.0
 40
2.0
 40
3.0
 40
3.0
 40
3.0
 40
4.0
 40
4.0
 40
4.0
 40
5.0
 40
5.0
 40
5.0
 40
6.0
 40
6.0
 40
6.0
 40
7.0
 40
7.0
 40
7.0
 40
8.0
 40
8.0
 40
8.0
 40
9.0
 40
9.0
 40
9.0
 40
10.0
 40
10.0
 40
10.0
 40
11.0
 40
11.0
 40
11.0
 40
12.0
 40
12.0
 40
12.0
 40
13.0
 40
13.0
 40
13.0
 40
14.0
 40
14.0
 40
14.0
 40
15.0
 40
15.0
 40
15.0
 40
16.0
 40
16.0
 40
16.0
 40
17.0
 40
17.0
 40
17.0
 40
17.0
 10
1013.164009184679
 20
-411.7681866518083
 30
0.0
 10
1013.164009184679
 20
-411.7681866518083
 30
0.0
 10
1012.654824071959
 20
-411.2972420989747
 30
0.0
 10
1012.654824071959
 20
-411.2972420989747
 30
0.0
 10
1012.654824071959
 20
-411.2972420989747
 30
0.0
 10
1013.145405669058
 20
-411.0602195295895
 30
0.0
 10
1013.145405669058
 20
-411.0602195295895
 30
0.0
 10
1013.916418038654
 20
-410.8128616737486
 30
0.0
 10
1014.752887222476
 20
-410.7511944645626
 30
0.0
 10
1015.144939088697
 20
-411.6462302716305
 30
0.0
 10
1015.240712743187
 20
-412.4313675327189
 30
0.0
 10
1014.913428672085
 20
-412.9054126714893
 30
0.0
 10
1014.357390260766
 20
-413.3946162303948
 30
0.0
 10
1013.16056408919
 20
-413.5034812477286
 30
0.0
 10
1012.358545860224
 20
-414.6062563125572
 30
0.0
 10
1011.618539349992
 20
-415.4327347194686
 30
0.0
 10
1010.764844688751
 20
-417.445014992403
 30
0.0
 10
1011.467644167739
 20
-419.8627830039513
 30
0.0
 10
1011.885878759651
 20
-421.8895326779238
 30
0.0
 10
1011.885878759651
 20
-421.8895326779238
 30
0.0
 10
1012.141504844653
 20
-422.1382685719589
 30
0.0
 10
1012.141504844653
 20
-422.1382685719589
 30
0.0
 10
1012.60245862058
 20
-422.5947437237544
 30
0.0
 10
1012.977285009375
 20
-423.0805021871747
 30
0.0
 10
1012.94421209272
 20
-423.7774450038407
 30
0.0
 10
1012.505306927896
 20
-424.9573902075388
 30
0.0
 10
1010.163331017023
 20
-425.5313431153814
 30
0.0
 10
1009.913906103891
 20
-423.6475649040468
 30
0.0
 10
1009.490159359205
 20
-422.8999791837476
 30
0.0
 10
1009.319971642237
 20
-422.3573766448208
 30
0.0
 10
1009.2111066249
 20
-421.8037498003411
 30
0.0
 10
1009.2111066249
 20
-421.8037498003411
 30
0.0
 10
1009.134625505131
 20
-421.3669116928114
 30
0.0
 10
1009.134625505131
 20
-421.3669116928114
 30
0.0
 10
1008.990620513847
 20
-422.4583179425385
 30
0.0
 10
1009.165631364495
 20
-423.7292136670472
 30
0.0
 10
1009.348221425216
 20
-424.8016718916055
 30
0.0
 10
1009.724425852202
 20
-426.2217402506255
 30
0.0
 10
1010.704211008207
 20
-427.3062563093821
 30
0.0
 10
1012.108431927998
 20
-427.876419612191
 30
0.0
 10
1015.326840130315
 20
-428.6395082621738
 30
0.0
 10
1017.981630711249
 20
-426.4408483234874
 30
0.0
 10
1019.817866604887
 20
-424.0620098909224
 30
0.0
 10
1022.709679755206
 20
-419.9323739327534
 30
0.0
 10
1025.277653929914
 20
-414.7547399279714
 30
0.0
 10
1022.941190171818
 20
-409.7521167738401
 30
0.0
 10
1020.152729886057
 20
-406.2629240663791
 30
0.0
 10
1013.164009184679
 20
-411.7681866518083
 30
0.0
 10
1013.164009184679
 20
-411.7681866518083
 30
0.0
 10
1013.164009184679
 20
-411.7681866518083
 30
0.0
 10
1014.682607274577
 20
-407.8834969826406
 30
0.0
 10
1013.164009184679
 20
-411.7681866518083
 30
0.0
  0
SPLINE
  5
403
330
3FB
100
AcDbEntity
  8
Layer 2
370
     0
100
AcDbSpline
210
0.0
220
0.0
230
1.0
 70
    11
 71
     3
 72
    26
 73
    22
 74
     0
 42
0.0000000001
 43
0.0000000001
 12
1.0
 22
0.0
 32
0.0
 13
1.0
 23
0.0
 33
0.0
 40
0.0
 40
0.0
 40
0.0
 40
0.0
 40
1.0
 40
1.0
 40
1.0
 40
2.0
 40
2.0
 40
2.0
 40
3.0
 40
3.0
 40
3.0
 40
4.0
 40
4.0
 40
4.0
 40
5.0
 40
5.0
 40
5.0
 40
6.0
 40
6.0
 40
6.0
 40
7.0
 40
7.0
 40
7.0
 40
7.0
 10
1021.8236011964
 20
-425.7687101943151
 30
0.0
 10
1019.558795424396
 20
-428.8441469339976
 30
0.0
 10
1015.869098159694
 20
-430.8936342381728
 30
0.0
 10
1011.920329714504
 20
-430.3375958268535
 30
0.0
 10
1009.136692562418
 20
-429.5962112784277
 30
0.0
 10
1007.334907623633
 20
-426.8918113225066
 30
0.0
 10
1006.874642866803
 20
-424.2321976078937
 30
0.0
 10
1006.313781321805
 20
-420.7554072441796
 30
0.0
 10
1007.256359446569
 20
-417.5890199836865
 30
0.0
 10
1009.092595340207
 20
-414.9717809435422
 30
0.0
 10
1009.64312159875
 20
-411.170118075569
 30
0.0
 10
1011.805263525293
 20
-407.5193503898497
 30
0.0
 10
1015.578332100742
 20
-405.8412443789845
 30
0.0
 10
1017.93064329807
 20
-404.9830710936088
 30
0.0
 10
1023.197505275917
 20
-404.6051441188769
 30
0.0
 10
1024.982064737277
 20
-408.4626175337111
 30
0.0
 10
1028.221832531606
 20
-414.4374466337799
 30
0.0
 10
1021.8236011964
 20
-425.7687101943151
 30
0.0
 10
1021.8236011964
 20
-425.7687101943151
 30
0.0
 10
1021.8236011964
 20
-425.7687101943151
 30
0.0
 10
1024.973107489015
 20
-420.9975974567926
 30
0.0
 10
1021.8236011964
 20
-425.7687101943151
 30
0.0
  0
SPLINE
  5
404
330
3FB
100
AcDbEntity
  8
Layer 2
370
     0
100
AcDbSpline
210
0.0
220
0.0
230
1.0
 70
    11
 71
     3
 72
    20
 73
    16
 74
     0
 42
0.0000000001
 43
0.0000000001
 12
1.0
 22
0.0
 32
0.0
 13
1.0
 23
0.0
 33
0.0
 40
0.0
 40
0.0
 40
0.0
 40
0.0
 40
1.0
 40
1.0
 40
1.0
 40
2.0
 40
2.0
 40
2.0
 40
3.0
 40
3.0
 40
3.0
 40
4.0
 40
4.0
 40
4.0
 40
5.0
 40
5.0
 40
5.0
 40
5.0
 10
1084.406516762354
 20
-418.7286575702071
 30
0.0
 10
1084.559479001896
 20
-418.2635696796984
 30
0.0
 10
1084.509869626909
 20
-417.644486020999
 30
0.0
 10
1084.2315059117
 20
-417.2162606521824
 30
0.0
 10
1083.629303220879
 20
-416.4583396454274
 30
0.0
 10
1082.468995061447
 20
-415.9198712210829
 30
0.0
 10
1081.748970105029
 20
-416.9130922494804
 30
0.0
 10
1081.386546059981
 20
-417.7995153178352
 30
0.0
 10
1081.658019584222
 20
-418.6818042716077
 30
0.0
 10
1082.369776311474
 20
-419.2902081343028
 30
0.0
 10
1083.126319280032
 20
-419.471420156827
 30
0.0
 10
1084.406516762354
 20
-418.7286575702071
 30
0.0
 10
1084.406516762354
 20
-418.7286575702071
 30
0.0
 10
1084.406516762354
 20
-418.7286575702071
 30
0.0
 10
1083.988282170442
 20
-419.6526321793511
 30
0.0
 10
1084.406516762354
 20
-418.7286575702071
 30
0.0
  0
SPLINE
  5
405
330
3FB
100
AcDbEntity
  8
Layer 2
370
     0
100
AcDbSpline
210
0.0
220
0.0
230
1.0
 70
    11
 71
     3
 72
    20
 73
    16
 74
     0
 42
0.0000000001
 43
0.0000000001
 12
1.0
 22
0.0
 32
0.0
 13
1.0
 23
0.0
 33
0.0
 40
0.0
 40
0.0
 40
0.0
 40
0.0
 40
1.0
 40
1.0
 40
1.0
 40
2.0
 40
2.0
 40
2.0
 40
3.0
 40
3.0
 40
3.0
 40
4.0
 40
4.0
 40
4.0
 40
5.0
 40
5.0
 40
5.0
 40
5.0
 10
1040.967996807933
 20
-417.3089337207356
 30
0.0
 10
1040.578701018103
 20
-417.8670391893461
 30
0.0
 10
1039.617519377718
 20
-417.8684172275402
 30
0.0
 10
1039.120736608742
 20
-417.665501103459
 30
0.0
 10
1038.402089690522
 20
-417.3723234776642
 30
0.0
 10
1037.719271765345
 20
-416.4242332001235
 30
0.0
 10
1038.245682355492
 20
-415.5074932914985
 30
0.0
 10
1038.833415645272
 20
-414.4842999323793
 30
0.0
 10
1040.052979447051
 20
-414.7654197239757
 30
0.0
 10
1040.682742901754
 20
-415.2783944417294
 30
0.0
 10
1041.077550844364
 20
-415.5994773409546
 30
0.0
 10
1040.967996807933
 20
-417.3089337207356
 30
0.0
 10
1040.967996807933
 20
-417.3089337207356
 30
0.0
 10
1040.967996807933
 20
-417.3089337207356
 30
0.0
 10
1041.493718378982
 20
-416.5572138858541
 30
0.0
 10
1040.967996807933
 20
-417.3089337207356
 30
0.0
  0
HATCH
  5
406
330
3FB
100
AcDbEntity
  8
Layer 2
 62
   152
420
    26316
100
AcDbHatch
 10
0.0
 20
0.0
 30
0.0
210
0.0
220
0.0
230
1.0
  2
SOLID
 70
     1
 71
     0
 91
        7
 92
        1
 93
        1
 72
     4
 94
        3
 73
     0
 74
     1
 95
       17
 96
       13
 40
0.0
 40
0.0
 40
0.0
 40
0.0
 40
1.0
 40
1.0
 40
1.0
 40
2.0
 40
2.0
 40
2.0
 40
3.0
 40
3.0
 40
3.0
 40
4.0
 40
4.0
 40
4.0
 40
4.0
 10
1034.706880273043
 20
-410.295408331864
 10
1034.491217295667
 20
-413.2278736089087
 10
1033.28750093312
 20
-415.1684958957499
 10
1031.852274153962
 20
-417.5903980218806
 10
1031.870188650485
 20
-414.5487232179535
 10
1032.283600108718
 20
-411.8270977846061
 10
1034.152219899915
 20
-409.8540916002035
 10
1034.391998545688
 20
-409.5271520386533
 10
1034.706880273043
 20
-410.295408331864
 10
1034.706880273043
 20
-410.295408331864
 10
1034.706880273043
 20
-410.295408331864
 10
1034.76751395358
 20
-409.5839961141599
 10
1034.706880273043
 20
-410.295408331864
 97
        0
 97
        0
 92
        1
 93
        1
 72
     4
 94
        3
 73
     0
 74
     1
 95
       17
 96
       13
 40
0.0
 40
0.0
 40
0.0
 40
0.0
 40
1.0
 40
1.0
 40
1.0
 40
2.0
 40
2.0
 40
2.0
 40
3.0
 40
3.0
 40
3.0
 40
4.0
 40
4.0
 40
4.0
 40
4.0
 10
1063.939204484482
 20
-422.5489239538006
 10
1063.929558217123
 20
-422.795248280996
 10
1063.34251394644
 20
-423.4439597608686
 10
1062.286247670659
 20
-423.6268943311353
 10
1062.093322323488
 20
-422.3852819182513
 10
1062.692768937918
 20
-421.6600893186062
 10
1063.279813208608
 20
-421.6600893186062
 10
1063.765571672025
 20
-421.6600893186062
 10
1063.939204484482
 20
-422.5489239538006
 10
1063.939204484482
 20
-422.5489239538006
 10
1063.939204484482
 20
-422.5489239538006
 10
1063.96607622927
 20
-421.8423348697759
 10
1063.939204484482
 20
-422.5489239538006
 97
        0
 97
        0
 92
        1
 93
        1
 72
     4
 94
        3
 73
     0
 74
     1
 95
      203
 96
      199
 40
0.0
 40
0.0
 40
0.0
 40
0.0
 40
1.0
 40
1.0
 40
1.0
 40
2.0
 40
2.0
 40
2.0
 40
3.0
 40
3.0
 40
3.0
 40
4.0
 40
4.0
 40
4.0
 40
5.0
 40
5.0
 40
5.0
 40
6.0
 40
6.0
 40
6.0
 40
7.0
 40
7.0
 40
7.0
 40
8.0
 40
8.0
 40
8.0
 40
9.0
 40
9.0
 40
9.0
 40
10.0
 40
10.0
 40
10.0
 40
11.0
 40
11.0
 40
11.0
 40
12.0
 40
12.0
 40
12.0
 40
13.0
 40
13.0
 40
13.0
 40
14.0
 40
14.0
 40
14.0
 40
15.0
 40
15.0
 40
15.0
 40
16.0
 40
16.0
 40
16.0
 40
17.0
 40
17.0
 40
17.0
 40
18.0
 40
18.0
 40
18.0
 40
19.0
 40
19.0
 40
19.0
 40
20.0
 40
20.0
 40
20.0
 40
21.0
 40
21.0
 40
21.0
 40
22.0
 40
22.0
 40
22.0
 40
23.0
 40
23.0
 40
23.0
 40
24.0
 40
24.0
 40
24.0
 40
25.0
 40
25.0
 40
25.0
 40
26.0
 40
26.0
 40
26.0
 40
27.0
 40
27.0
 40
27.0
 40
28.0
 40
28.0
 40
28.0
 40
29.0
 40
29.0
 40
29.0
 40
30.0
 40
30.0
 40
30.0
 40
31.0
 40
31.0
 40
31.0
 40
32.0
 40
32.0
 40
32.0
 40
33.0
 40
33.0
 40
33.0
 40
34.0
 40
34.0
 40
34.0
 40
35.0
 40
35.0
 40
35.0
 40
36.0
 40
36.0
 40
36.0
 40
37.0
 40
37.0
 40
37.0
 40
38.0
 40
38.0
 40
38.0
 40
39.0
 40
39.0
 40
39.0
 40
40.0
 40
40.0
 40
40.0
 40
41.0
 40
41.0
 40
41.0
 40
42.0
 40
42.0
 40
42.0
 40
43.0
 40
43.0
 40
43.0
 40
44.0
 40
44.0
 40
44.0
 40
45.0
 40
45.0
 40
45.0
 40
46.0
 40
46.0
 40
46.0
 40
47.0
 40
47.0
 40
47.0
 40
48.0
 40
48.0
 40
48.0
 40
49.0
 40
49.0
 40
49.0
 40
50.0
 40
50.0
 40
50.0
 40
51.0
 40
51.0
 40
51.0
 40
52.0
 40
52.0
 40
52.0
 40
53.0
 40
53.0
 40
53.0
 40
54.0
 40
54.0
 40
54.0
 40
55.0
 40
55.0
 40
55.0
 40
56.0
 40
56.0
 40
56.0
 40
57.0
 40
57.0
 40
57.0
 40
58.0
 40
58.0
 40
58.0
 40
59.0
 40
59.0
 40
59.0
 40
60.0
 40
60.0
 40
60.0
 40
61.0
 40
61.0
 40
61.0
 40
62.0
 40
62.0
 40
62.0
 40
63.0
 40
63.0
 40
63.0
 40
64.0
 40
64.0
 40
64.0
 40
65.0
 40
65.0
 40
65.0
 40
66.0
 40
66.0
 40
66.0
 40
66.0
 10
1071.736144586699
 20
-425.1337790963836
 10
1071.736144586699
 20
-425.1337790963836
 10
1071.964898926923
 20
-426.0887595648949
 10
1071.964898926923
 20
-426.0887595648949
 10
1072.09098942168
 20
-426.5841642956738
 10
1072.236372451157
 20
-427.0444290525032
 10
1072.479596192419
 20
-427.4974591088135
 10
1074.022998969811
 20
-429.5627938522208
 10
1077.96281016674
 20
-429.3261157923841
 10
1079.981636121096
 20
-428.7001419427142
 10
1081.099914115608
 20
-428.3525318082525
 10
1082.174094887909
 20
-427.7782343908614
 10
1083.181440807796
 20
-427.1794767955249
 10
1085.749414982501
 20
-428.8675735832974
 10
1088.992627872316
 20
-429.3898500588613
 10
1092.242041934003
 20
-429.4025969121566
 10
1095.563113981787
 20
-429.4149992559036
 10
1098.953776958367
 20
-428.8923782707911
 10
1101.740859205934
 20
-428.4865460226287
 10
1104.705019361443
 20
-428.296376751843
 10
1107.068354864324
 20
-426.8987015134771
 10
1110.186855297576
 20
-427.5694616044552
 10
1110.859337936293
 20
-427.344841378817
 10
1111.389193621928
 20
-427.001709868486
 10
1111.339584246937
 20
-426.1655851942159
 10
1111.037793882429
 20
-425.4255786839843
 10
1110.61955929052
 20
-424.9084698516482
 10
1109.747950132752
 20
-424.8392234323947
 10
1108.277583379647
 20
-425.4717429634866
 10
1106.617736374854
 20
-425.284329769089
 10
1105.082601826626
 20
-425.6612232151754
 10
1101.180686680033
 20
-426.5707284232813
 10
1097.026590543918
 20
-426.9276403155532
 10
1092.611356170022
 20
-427.1667299422295
 10
1089.873883297442
 20
-427.1436478024784
 10
1086.413629392058
 20
-427.1012731280098
 10
1084.505046493232
 20
-424.794092681538
 10
1084.294206649532
 20
-424.0988724126145
 10
1084.864714461889
 20
-423.1759313321161
 10
1084.637338159866
 20
-422.1875334373979
 10
1084.281115286691
 20
-421.4978253212509
 10
1083.69751611149
 20
-421.0413501694553
 10
1082.849333603018
 20
-421.2652813759966
 10
1081.686269367198
 20
-422.105540164849
 10
1081.702116806433
 20
-423.492191097662
 10
1081.806158690088
 20
-424.7527515357149
 10
1080.131842284256
 20
-426.9166160100004
 10
1076.278158474453
 20
-427.8199200462329
 10
1074.627957737018
 20
-426.1421585449162
 10
1074.54183034989
 20
-425.8455358236362
 10
1074.376465766598
 20
-425.263314686629
 10
1074.544586426275
 20
-424.8350893178124
 10
1074.55974484641
 20
-424.7834128855337
 10
1074.575592285642
 20
-424.7272578291241
 10
1074.58317149571
 20
-424.663523562647
 10
1074.669298882841
 20
-424.0134340445803
 10
1074.455702962755
 20
-423.526297542966
 10
1073.861079482001
 20
-423.3151131897202
 10
1072.730399143745
 20
-422.8999791837476
 10
1072.797233996156
 20
-422.3925166187703
 10
1071.996593805384
 20
-421.6859275347455
 10
1071.173215984413
 20
-420.927662018442
 10
1070.214101401316
 20
-421.2928421398785
 10
1069.642215550764
 20
-422.0524856943761
 10
1069.501655654969
 20
-424.0864700688676
 10
1068.065050837617
 20
-425.75355177418
 10
1066.485130048081
 20
-426.8487476289409
 10
1065.475717070903
 20
-427.1977358015968
 10
1064.210678008719
 20
-427.0823251028409
 10
1063.384544111356
 20
-426.5218080673907
 10
1063.110314510734
 20
-426.332327815702
 10
1063.013851837144
 20
-426.1228660101988
 10
1063.008339684367
 20
-425.9750714138816
 10
1064.325744197927
 20
-425.6043791396687
 10
1065.50672293027
 20
-424.7086543135038
 10
1066.181272626286
 20
-423.4780662061725
 10
1066.979845759766
 20
-421.3352168143471
 10
1065.430930829598
 20
-419.0480179216897
 10
1063.050369849291
 20
-419.3801251264678
 10
1060.855155006089
 20
-419.6874276437521
 10
1059.772706004624
 20
-421.2370315930175
 10
1059.876747888278
 20
-423.9073251036347
 10
1058.669586430243
 20
-423.85702670955
 10
1057.587826447875
 20
-423.4553285759699
 10
1056.466103357878
 20
-423.0040210674022
 10
1055.504232698396
 20
-422.615414296666
 10
1055.331977924134
 20
-421.712454769982
 10
1053.931202099831
 20
-421.9739375173124
 10
1052.829460563651
 20
-423.139068810424
 10
1053.601850971441
 20
-423.9045690272465
 10
1054.323942985149
 20
-424.8247540313567
 10
1055.047413037055
 20
-425.7425274686273
 10
1055.014340120393
 20
-427.1191876245331
 10
1053.868501362
 20
-427.7696216521483
 10
1052.225879834635
 20
-428.1589174419815
 10
1050.851975755115
 20
-426.7209345864382
 10
1049.852898064396
 20
-425.6550220433019
 10
1049.865989427236
 20
-425.0194019262733
 10
1049.884592942856
 20
-423.7857132330053
 10
1049.721295416859
 20
-423.2420771654329
 10
1049.396078403051
 20
-422.1510154252543
 10
1048.691211866766
 20
-421.2142939628148
 10
1047.397234002506
 20
-421.6466534462137
 10
1046.589014601667
 20
-422.7215232376117
 10
1046.898384176242
 20
-424.0089554204495
 10
1047.341423455645
 20
-425.1055293134045
 10
1046.979688429694
 20
-426.228630441596
 10
1046.445009610383
 20
-427.3238262963569
 10
1045.396322544673
 20
-427.8805537267733
 10
1044.177447761995
 20
-428.1709752761798
 10
1042.055268943081
 20
-427.8795201981277
 10
1041.177458613436
 20
-425.7035978896439
 10
1041.227757007524
 20
-425.4145543784314
 10
1041.361426712348
 20
-424.5922100861023
 10
1041.362804750542
 20
-423.754018354541
 10
1041.364182788737
 20
-423.2365650126565
 10
1041.315951451943
 20
-422.6767369963034
 10
1041.14920883046
 20
-422.2202618445078
 10
1040.603505705594
 20
-420.7371482381077
 10
1038.379352060319
 20
-420.7526511677914
 10
1038.38073009851
 20
-423.3033998650703
 10
1038.38073009851
 20
-423.9135262755081
 10
1038.471680619321
 20
-424.5253752336885
 10
1038.61430757241
 20
-425.1165536189574
 10
1037.729607051798
 20
-426.9338414874266
 10
1035.908529578295
 20
-427.2986770993146
 10
1034.629710134173
 20
-427.0540753198619
 10
1032.752133094709
 20
-426.0959942654139
 10
1032.145796289305
 20
-424.0533971522092
 10
1031.880523936941
 20
-421.9505108680128
 10
1033.224111176188
 20
-420.0984275351424
 10
1034.356858571738
 20
-418.4757875615898
 10
1035.528880055821
 20
-416.2216615855908
 10
1036.873845333262
 20
-413.7229338301391
 10
1037.394743770632
 20
-412.701118509214
 10
1037.499474673387
 20
-409.6208586358521
 10
1037.178391774161
 20
-405.8257414493009
 10
1032.510287391648
 20
-406.9095684889605
 10
1031.51465479641
 20
-408.9208152332494
 10
1029.136849892491
 20
-412.64599698145
 10
1028.726883529743
 20
-417.652409740615
 10
1029.145807140753
 20
-421.8895326779238
 10
1028.67934121205
 20
-422.7659649693714
 10
1027.975852713962
 20
-423.4391366271892
 10
1027.28269950233
 20
-424.1322898388215
 10
1026.643289780264
 20
-424.6828160973644
 10
1026.119635266506
 20
-424.8316442223272
 10
1025.746186915905
 20
-425.6860279026691
 10
1025.932222072112
 20
-426.0308819607426
 10
1025.986654580775
 20
-426.0856589789581
 10
1026.428315821984
 20
-426.3519648599679
 10
1027.788439519561
 20
-426.7691659232317
 10
1028.597347939498
 20
-425.9402759494806
 10
1029.464133963587
 20
-425.1093189184383
 10
1029.464133963587
 20
-425.1093189184383
 10
1029.841716428773
 20
-424.7579191789428
 10
1029.841716428773
 20
-424.7579191789428
 10
1030.738130274032
 20
-426.6344626897584
 10
1032.10721121987
 20
-428.7879918775881
 10
1034.313450368624
 20
-429.4015633835111
 10
1035.592269812752
 20
-429.6161928322422
 10
1037.141184742917
 20
-429.6079246030775
 10
1038.299425845061
 20
-428.8844545511751
 10
1038.299425845061
 20
-428.8844545511751
 10
1040.005437129357
 20
-427.7889141868657
 10
1040.005437129357
 20
-427.7889141868657
 10
1041.246360523144
 20
-429.2523907489998
 10
1042.857287172044
 20
-430.4285463476641
 10
1044.98360010554
 20
-430.2283862999711
 10
1046.385753968037
 20
-430.1677526194306
 10
1047.49507471429
 20
-429.1690194382567
 10
1048.390799540455
 20
-428.1988805496104
 10
1048.390799540455
 20
-428.1988805496104
 10
1048.905496805952
 20
-427.6238941131222
 10
1048.905496805952
 20
-427.6238941131222
 10
1050.285602057339
 20
-429.075312841058
 10
1051.893083610757
 20
-430.4282018381156
 10
1054.298449278562
 20
-429.9827509918728
 10
1055.772950146245
 20
-429.7922372115384
 10
1056.557742897789
 20
-428.9781611483739
 10
1057.133762862919
 20
-427.6879728891478
 10
1057.40523638716
 20
-427.0564868867015
 10
1057.326688210096
 20
-426.3678122992001
 10
1057.258475319485
 20
-425.7087655328718
 10
1058.260998105696
 20
-425.9671476942655
 10
1059.300727923145
 20
-426.1810881238995
 10
1060.336323626007
 20
-426.2203622124314
 10
1060.690479441891
 20
-427.1360685924108
 10
1061.316797801109
 20
-428.1995695687074
 10
1062.24008339116
 20
-428.6250388611358
 10
1064.238927791698
 20
-429.5459128843431
 10
1064.351926923615
 20
-429.3943286829921
 10
1066.231571020367
 20
-429.2947654234683
 10
1068.630735516295
 20
-428.8493145772255
 10
1071.736144586699
 20
-425.1337790963836
 10
1071.736144586699
 20
-425.1337790963836
 10
1071.736144586699
 20
-425.1337790963836
 10
1070.393246366549
 20
-426.9755271427982
 10
1071.736144586699
 20
-425.1337790963836
 97
        0
 97
        0
 92
        1
 93
        1
 72
     4
 94
        3
 73
     0
 74
     1
 95
       56
 96
       52
 40
0.0
 40
0.0
 40
0.0
 40
0.0
 40
1.0
 40
1.0
 40
1.0
 40
2.0
 40
2.0
 40
2.0
 40
3.0
 40
3.0
 40
3.0
 40
4.0
 40
4.0
 40
4.0
 40
5.0
 40
5.0
 40
5.0
 40
6.0
 40
6.0
 40
6.0
 40
7.0
 40
7.0
 40
7.0
 40
8.0
 40
8.0
 40
8.0
 40
9.0
 40
9.0
 40
9.0
 40
10.0
 40
10.0
 40
10.0
 40
11.0
 40
11.0
 40
11.0
 40
12.0
 40
12.0
 40
12.0
 40
13.0
 40
13.0
 40
13.0
 40
14.0
 40
14.0
 40
14.0
 40
15.0
 40
15.0
 40
15.0
 40
16.0
 40
16.0
 40
16.0
 40
17.0
 40
17.0
 40
17.0
 40
17.0
 10
1013.164009184679
 20
-411.7681866518083
 10
1013.164009184679
 20
-411.7681866518083
 10
1012.654824071959
 20
-411.2972420989747
 10
1012.654824071959
 20
-411.2972420989747
 10
1012.654824071959
 20
-411.2972420989747
 10
1013.145405669058
 20
-411.0602195295895
 10
1013.145405669058
 20
-411.0602195295895
 10
1013.916418038654
 20
-410.8128616737486
 10
1014.752887222476
 20
-410.7511944645626
 10
1015.144939088697
 20
-411.6462302716305
 10
1015.240712743187
 20
-412.4313675327189
 10
1014.913428672085
 20
-412.9054126714893
 10
1014.357390260766
 20
-413.3946162303948
 10
1013.16056408919
 20
-413.5034812477286
 10
1012.358545860224
 20
-414.6062563125572
 10
1011.618539349992
 20
-415.4327347194686
 10
1010.764844688751
 20
-417.445014992403
 10
1011.467644167739
 20
-419.8627830039513
 10
1011.885878759651
 20
-421.8895326779238
 10
1011.885878759651
 20
-421.8895326779238
 10
1012.141504844653
 20
-422.1382685719589
 10
1012.141504844653
 20
-422.1382685719589
 10
1012.60245862058
 20
-422.5947437237544
 10
1012.977285009375
 20
-423.0805021871747
 10
1012.94421209272
 20
-423.7774450038407
 10
1012.505306927896
 20
-424.9573902075388
 10
1010.163331017023
 20
-425.5313431153814
 10
1009.913906103891
 20
-423.6475649040468
 10
1009.490159359205
 20
-422.8999791837476
 10
1009.319971642237
 20
-422.3573766448208
 10
1009.2111066249
 20
-421.8037498003411
 10
1009.2111066249
 20
-421.8037498003411
 10
1009.134625505131
 20
-421.3669116928114
 10
1009.134625505131
 20
-421.3669116928114
 10
1008.990620513847
 20
-422.4583179425385
 10
1009.165631364495
 20
-423.7292136670472
 10
1009.348221425216
 20
-424.8016718916055
 10
1009.724425852202
 20
-426.2217402506255
 10
1010.704211008207
 20
-427.3062563093821
 10
1012.108431927998
 20
-427.876419612191
 10
1015.326840130315
 20
-428.6395082621738
 10
1017.981630711249
 20
-426.4408483234874
 10
1019.817866604887
 20
-424.0620098909224
 10
1022.709679755206
 20
-419.9323739327534
 10
1025.277653929914
 20
-414.7547399279714
 10
1022.941190171818
 20
-409.7521167738401
 10
1020.152729886057
 20
-406.2629240663791
 10
1013.164009184679
 20
-411.7681866518083
 10
1013.164009184679
 20
-411.7681866518083
 10
1013.164009184679
 20
-411.7681866518083
 10
1014.682607274577
 20
-407.8834969826406
 10
1013.164009184679
 20
-411.7681866518083
 97
        0
 97
        0
 92
        1
 93
        1
 72
     4
 94
        3
 73
     0
 74
     1
 95
       26
 96
       22
 40
0.0
 40
0.0
 40
0.0
 40
0.0
 40
1.0
 40
1.0
 40
1.0
 40
2.0
 40
2.0
 40
2.0
 40
3.0
 40
3.0
 40
3.0
 40
4.0
 40
4.0
 40
4.0
 40
5.0
 40
5.0
 40
5.0
 40
6.0
 40
6.0
 40
6.0
 40
7.0
 40
7.0
 40
7.0
 40
7.0
 10
1021.8236011964
 20
-425.7687101943151
 10
1019.558795424396
 20
-428.8441469339976
 10
1015.869098159694
 20
-430.8936342381728
 10
1011.920329714504
 20
-430.3375958268535
 10
1009.136692562418
 20
-429.5962112784277
 10
1007.334907623633
 20
-426.8918113225066
 10
1006.874642866803
 20
-424.2321976078937
 10
1006.313781321805
 20
-420.7554072441796
 10
1007.256359446569
 20
-417.5890199836865
 10
1009.092595340207
 20
-414.9717809435422
 10
1009.64312159875
 20
-411.170118075569
 10
1011.805263525293
 20
-407.5193503898497
 10
1015.578332100742
 20
-405.8412443789845
 10
1017.93064329807
 20
-404.9830710936088
 10
1023.197505275917
 20
-404.6051441188769
 10
1024.982064737277
 20
-408.4626175337111
 10
1028.221832531606
 20
-414.4374466337799
 10
1021.8236011964
 20
-425.7687101943151
 10
1021.8236011964
 20
-425.7687101943151
 10
1021.8236011964
 20
-425.7687101943151
 10
1024.973107489015
 20
-420.9975974567926
 10
1021.8236011964
 20
-425.7687101943151
 97
        0
 97
        0
 92
        1
 93
        1
 72
     4
 94
        3
 73
     0
 74
     1
 95
       20
 96
       16
 40
0.0
 40
0.0
 40
0.0
 40
0.0
 40
1.0
 40
1.0
 40
1.0
 40
2.0
 40
2.0
 40
2.0
 40
3.0
 40
3.0
 40
3.0
 40
4.0
 40
4.0
 40
4.0
 40
5.0
 40
5.0
 40
5.0
 40
5.0
 10
1084.406516762354
 20
-418.7286575702071
 10
1084.559479001896
 20
-418.2635696796984
 10
1084.509869626909
 20
-417.644486020999
 10
1084.2315059117
 20
-417.2162606521824
 10
1083.629303220879
 20
-416.4583396454274
 10
1082.468995061447
 20
-415.9198712210829
 10
1081.748970105029
 20
-416.9130922494804
 10
1081.386546059981
 20
-417.7995153178352
 10
1081.658019584222
 20
-418.6818042716077
 10
1082.369776311474
 20
-419.2902081343028
 10
1083.126319280032
 20
-419.471420156827
 10
1084.406516762354
 20
-418.7286575702071
 10
1084.406516762354
 20
-418.7286575702071
 10
1084.406516762354
 20
-418.7286575702071
 10
1083.988282170442
 20
-419.6526321793511
 10
1084.406516762354
 20
-418.7286575702071
 97
        0
 97
        0
 92
        1
 93
        1
 72
     4
 94
        3
 73
     0
 74
     1
 95
       20
 96
       16
 40
0.0
 40
0.0
 40
0.0
 40
0.0
 40
1.0
 40
1.0
 40
1.0
 40
2.0
 40
2.0
 40
2.0
 40
3.0
 40
3.0
 40
3.0
 40
4.0
 40
4.0
 40
4.0
 40
5.0
 40
5.0
 40
5.0
 40
5.0
 10
1040.967996807933
 20
-417.3089337207356
 10
1040.578701018103
 20
-417.8670391893461
 10
1039.617519377718
 20
-417.8684172275402
 10
1039.120736608742
 20
-417.665501103459
 10
1038.402089690522
 20
-417.3723234776642
 10
1037.719271765345
 20
-416.4242332001235
 10
1038.245682355492
 20
-415.5074932914985
 10
1038.833415645272
 20
-414.4842999323793
 10
1040.052979447051
 20
-414.7654197239757
 10
1040.682742901754
 20
-415.2783944417294
 10
1041.077550844364
 20
-415.5994773409546
 10
1040.967996807933
 20
-417.3089337207356
 10
1040.967996807933
 20
-417.3089337207356
 10
1040.967996807933
 20
-417.3089337207356
 10
1041.493718378982
 20
-416.5572138858541
 10
1040.967996807933
 20
-417.3089337207356
 97
        0
 97
        0
 75
     2
 76
     1
 98
        0
  0
ENDBLK
  5
3FE
330
3FB
100
AcDbEntity
  8
0
100
AcDbBlockEnd
  0
BLOCK
  5
409
330
407
100
AcDbEntity
  8
0
100
AcDbBlockBegin
  2
block 43
 70
     0
 10
0.0
 20
0.0
 30
0.0
  3
block 43
  1

  0
SPLINE
  5
40B
330
407
100
AcDbEntity
  8
Layer 2
370
     0
100
AcDbSpline
210
0.0
220
0.0
230
1.0
 70
    11
 71
     3
 72
    20
 73
    16
 74
     0
 42
0.0000000001
 43
0.0000000001
 12
1.0
 22
0.0
 32
0.0
 13
1.0
 23
0.0
 33
0.0
 40
0.0
 40
0.0
 40
0.0
 40
0.0
 40
1.0
 40
1.0
 40
1.0
 40
2.0
 40
2.0
 40
2.0
 40
3.0
 40
3.0
 40
3.0
 40
4.0
 40
4.0
 40
4.0
 40
5.0
 40
5.0
 40
5.0
 40
5.0
 10
1108.770921053135
 20
-421.7617196354211
 30
0.0
 10
1108.770921053135
 20
-421.7617196354211
 30
0.0
 10
1109.066510245769
 20
-421.7617196354211
 30
0.0
 10
1109.066510245769
 20
-421.7617196354211
 30
0.0
 10
1109.224984638091
 20
-421.7617196354211
 30
0.0
 10
1109.380702954024
 20
-421.8113290104087
 30
0.0
 10
1109.380702954024
 20
-421.9846173133167
 30
0.0
 10
1109.380702954024
 20
-422.1837438323641
 30
0.0
 10
1109.257368535652
 20
-422.2233624304445
 30
0.0
 10
1109.066510245769
 20
-422.2233624304445
 30
0.0
 10
1109.066510245769
 20
-422.2233624304445
 30
0.0
 10
1108.770921053135
 20
-422.2233624304445
 30
0.0
 10
1108.770921053135
 20
-422.2233624304445
 30
0.0
 10
1108.770921053135
 20
-422.2233624304445
 30
0.0
 10
1108.770921053135
 20
-421.7617196354211
 30
0.0
 10
1108.770921053135
 20
-421.7617196354211
 30
0.0
  0
ENDBLK
  5
40A
330
407
100
AcDbEntity
  8
0
100
AcDbBlockEnd
  0
BLOCK
  5
40E
330
40C
100
AcDbEntity
  8
0
100
AcDbBlockBegin
  2
block 44
 70
     0
 10
0.0
 20
0.0
 30
0.0
  3
block 44
  1

  0
SPLINE
  5
410
330
40C
100
AcDbEntity
  8
Layer 2
370
     0
100
AcDbSpline
210
0.0
220
0.0
230
1.0
 70
    11
 71
     3
 72
    35
 73
    31
 74
     0
 42
0.0000000001
 43
0.0000000001
 12
1.0
 22
0.0
 32
0.0
 13
1.0
 23
0.0
 33
0.0
 40
0.0
 40
0.0
 40
0.0
 40
0.0
 40
1.0
 40
1.0
 40
1.0
 40
2.0
 40
2.0
 40
2.0
 40
3.0
 40
3.0
 40
3.0
 40
4.0
 40
4.0
 40
4.0
 40
5.0
 40
5.0
 40
5.0
 40
6.0
 40
6.0
 40
6.0
 40
7.0
 40
7.0
 40
7.0
 40
8.0
 40
8.0
 40
8.0
 40
9.0
 40
9.0
 40
9.0
 40
10.0
 40
10.0
 40
10.0
 40
10.0
 10
1108.520807120906
 20
-423.0932490404701
 30
0.0
 10
1108.520807120906
 20
-423.0932490404701
 30
0.0
 10
1108.770921053135
 20
-423.0932490404701
 30
0.0
 10
1108.770921053135
 20
-423.0932490404701
 30
0.0
 10
1108.770921053135
 20
-423.0932490404701
 30
0.0
 10
1108.770921053135
 20
-422.4183548349097
 30
0.0
 10
1108.770921053135
 20
-422.4183548349097
 30
0.0
 10
1108.770921053135
 20
-422.4183548349097
 30
0.0
 10
1108.979004820444
 20
-422.4183548349097
 30
0.0
 10
1108.979004820444
 20
-422.4183548349097
 30
0.0
 10
1108.979004820444
 20
-422.4183548349097
 30
0.0
 10
1109.405507641518
 20
-423.0932490404701
 30
0.0
 10
1109.405507641518
 20
-423.0932490404701
 30
0.0
 10
1109.405507641518
 20
-423.0932490404701
 30
0.0
 10
1109.669401955688
 20
-423.0932490404701
 30
0.0
 10
1109.669401955688
 20
-423.0932490404701
 30
0.0
 10
1109.669401955688
 20
-423.0932490404701
 30
0.0
 10
1109.236008943644
 20
-422.4183548349097
 30
0.0
 10
1109.236008943644
 20
-422.4183548349097
 30
0.0
 10
1109.474409551223
 20
-422.4183548349097
 30
0.0
 10
1109.630127867156
 20
-422.2409324174193
 30
0.0
 10
1109.630127867156
 20
-421.9959861284181
 30
0.0
 10
1109.630127867156
 20
-421.7076316363026
 30
0.0
 10
1109.455806035603
 20
-421.5667272309559
 30
0.0
 10
1109.105784334301
 20
-421.5667272309559
 30
0.0
 10
1109.105784334301
 20
-421.5667272309559
 30
0.0
 10
1108.520807120906
 20
-421.5667272309559
 30
0.0
 10
1108.520807120906
 20
-421.5667272309559
 30
0.0
 10
1108.520807120906
 20
-421.5667272309559
 30
0.0
 10
1108.520807120906
 20
-423.0932490404701
 30
0.0
 10
1108.520807120906
 20
-423.0932490404701
 30
0.0
  0
ENDBLK
  5
40F
330
40C
100
AcDbEntity
  8
0
100
AcDbBlockEnd
  0
BLOCK
  5
413
330
411
100
AcDbEntity
  8
0
100
AcDbBlockBegin
  2
block 45
 70
     0
 10
0.0
 20
0.0
 30
0.0
  3
block 45
  1

  0
SPLINE
  5
415
330
411
100
AcDbEntity
  8
Layer 2
370
     0
100
AcDbSpline
210
0.0
220
0.0
230
1.0
 70
    11
 71
     3
 72
    17
 73
    13
 74
     0
 42
0.0000000001
 43
0.0000000001
 12
1.0
 22
0.0
 32
0.0
 13
1.0
 23
0.0
 33
0.0
 40
0.0
 40
0.0
 40
0.0
 40
0.0
 40
1.0
 40
1.0
 40
1.0
 40
2.0
 40
2.0
 40
2.0
 40
3.0
 40
3.0
 40
3.0
 40
4.0
 40
4.0
 40
4.0
 40
4.0
 10
1107.965457728684
 20
-422.3315384286814
 30
0.0
 10
1107.965457728684
 20
-421.7076316363026
 30
0.0
 10
1108.417454256348
 20
-421.2232512110765
 30
0.0
 10
1109.023102042655
 20
-421.2232512110765
 30
0.0
 10
1109.621859637992
 20
-421.2232512110765
 30
0.0
 10
1110.072478127462
 20
-421.7076316363026
 30
0.0
 10
1110.072478127462
 20
-422.3315384286814
 30
0.0
 10
1110.072478127462
 20
-422.9554452210601
 30
0.0
 10
1109.621859637992
 20
-423.4391366271892
 30
0.0
 10
1109.023102042655
 20
-423.4391366271892
 30
0.0
 10
1108.417454256348
 20
-423.4391366271892
 30
0.0
 10
1107.965457728684
 20
-422.9554452210601
 30
0.0
 10
1107.965457728684
 20
-422.3315384286814
 30
0.0
  0
ENDBLK
  5
414
330
411
100
AcDbEntity
  8
0
100
AcDbBlockEnd
  0
BLOCK
  5
418
330
416
100
AcDbEntity
  8
0
100
AcDbBlockBegin
  2
block 46
 70
     0
 10
0.0
 20
0.0
 30
0.0
  3
block 46
  1

  0
SPLINE
  5
41A
330
416
100
AcDbEntity
  8
Layer 2
370
     0
100
AcDbSpline
210
0.0
220
0.0
230
1.0
 70
    11
 71
     3
 72
    17
 73
    13
 74
     0
 42
0.0000000001
 43
0.0000000001
 12
1.0
 22
0.0
 32
0.0
 13
1.0
 23
0.0
 33
0.0
 40
0.0
 40
0.0
 40
0.0
 40
0.0
 40
1.0
 40
1.0
 40
1.0
 40
2.0
 40
2.0
 40
2.0
 40
3.0
 40
3.0
 40
3.0
 40
4.0
 40
4.0
 40
4.0
 40
4.0
 10
1107.716721834649
 20
-422.3315384286814
 30
0.0
 10
1107.716721834649
 20
-423.0491518182589
 30
0.0
 10
1108.301010028947
 20
-423.6348180507514
 30
0.0
 10
1109.01965694717
 20
-423.6348180507514
 30
0.0
 10
1109.737614846296
 20
-423.6348180507514
 30
0.0
 10
1110.321903040594
 20
-423.0491518182589
 30
0.0
 10
1110.321903040594
 20
-422.3315384286814
 30
0.0
 10
1110.321903040594
 20
-421.6132360200068
 30
0.0
 10
1109.737614846296
 20
-421.0282588066113
 30
0.0
 10
1109.01965694717
 20
-421.0282588066113
 30
0.0
 10
1108.301010028947
 20
-421.0282588066113
 30
0.0
 10
1107.716721834649
 20
-421.6132360200068
 30
0.0
 10
1107.716721834649
 20
-422.3315384286814
 30
0.0
  0
ENDBLK
  5
419
330
416
100
AcDbEntity
  8
0
100
AcDbBlockEnd
  0
BLOCK
  5
41D
330
41B
100
AcDbEntity
  8
0
100
AcDbBlockBegin
  2
block 47
 70
     0
 10
0.0
 20
0.0
 30
0.0
  3
block 47
  1

  0
SPLINE
  5
41F
330
41B
100
AcDbEntity
  8
Layer 2
370
     0
100
AcDbSpline
210
0.0
220
0.0
230
1.0
 70
    11
 71
     3
 72
    20
 73
    16
 74
     0
 42
0.0000000001
 43
0.0000000001
 12
1.0
 22
0.0
 32
0.0
 13
1.0
 23
0.0
 33
0.0
 40
0.0
 40
0.0
 40
0.0
 40
0.0
 40
1.0
 40
1.0
 40
1.0
 40
2.0
 40
2.0
 40
2.0
 40
3.0
 40
3.0
 40
3.0
 40
4.0
 40
4.0
 40
4.0
 40
5.0
 40
5.0
 40
5.0
 40
5.0
 10
1108.770921053135
 20
-421.7617196354211
 30
0.0
 10
1108.770921053135
 20
-421.7617196354211
 30
0.0
 10
1109.066510245769
 20
-421.7617196354211
 30
0.0
 10
1109.066510245769
 20
-421.7617196354211
 30
0.0
 10
1109.224984638091
 20
-421.7617196354211
 30
0.0
 10
1109.380702954024
 20
-421.8113290104087
 30
0.0
 10
1109.380702954024
 20
-421.9846173133167
 30
0.0
 10
1109.380702954024
 20
-422.1837438323641
 30
0.0
 10
1109.257368535652
 20
-422.2233624304445
 30
0.0
 10
1109.066510245769
 20
-422.2233624304445
 30
0.0
 10
1109.066510245769
 20
-422.2233624304445
 30
0.0
 10
1108.770921053135
 20
-422.2233624304445
 30
0.0
 10
1108.770921053135
 20
-422.2233624304445
 30
0.0
 10
1108.770921053135
 20
-422.2233624304445
 30
0.0
 10
1108.770921053135
 20
-421.7617196354211
 30
0.0
 10
1108.770921053135
 20
-421.7617196354211
 30
0.0
  0
SPLINE
  5
420
330
41B
100
AcDbEntity
  8
Layer 2
370
     0
100
AcDbSpline
210
0.0
220
0.0
230
1.0
 70
    11
 71
     3
 72
    35
 73
    31
 74
     0
 42
0.0000000001
 43
0.0000000001
 12
1.0
 22
0.0
 32
0.0
 13
1.0
 23
0.0
 33
0.0
 40
0.0
 40
0.0
 40
0.0
 40
0.0
 40
1.0
 40
1.0
 40
1.0
 40
2.0
 40
2.0
 40
2.0
 40
3.0
 40
3.0
 40
3.0
 40
4.0
 40
4.0
 40
4.0
 40
5.0
 40
5.0
 40
5.0
 40
6.0
 40
6.0
 40
6.0
 40
7.0
 40
7.0
 40
7.0
 40
8.0
 40
8.0
 40
8.0
 40
9.0
 40
9.0
 40
9.0
 40
10.0
 40
10.0
 40
10.0
 40
10.0
 10
1108.520807120906
 20
-423.0932490404701
 30
0.0
 10
1108.520807120906
 20
-423.0932490404701
 30
0.0
 10
1108.770921053135
 20
-423.0932490404701
 30
0.0
 10
1108.770921053135
 20
-423.0932490404701
 30
0.0
 10
1108.770921053135
 20
-423.0932490404701
 30
0.0
 10
1108.770921053135
 20
-422.4183548349097
 30
0.0
 10
1108.770921053135
 20
-422.4183548349097
 30
0.0
 10
1108.770921053135
 20
-422.4183548349097
 30
0.0
 10
1108.979004820447
 20
-422.4183548349097
 30
0.0
 10
1108.979004820447
 20
-422.4183548349097
 30
0.0
 10
1108.979004820447
 20
-422.4183548349097
 30
0.0
 10
1109.405507641518
 20
-423.0932490404701
 30
0.0
 10
1109.405507641518
 20
-423.0932490404701
 30
0.0
 10
1109.405507641518
 20
-423.0932490404701
 30
0.0
 10
1109.669401955688
 20
-423.0932490404701
 30
0.0
 10
1109.669401955688
 20
-423.0932490404701
 30
0.0
 10
1109.669401955688
 20
-423.0932490404701
 30
0.0
 10
1109.236008943644
 20
-422.4183548349097
 30
0.0
 10
1109.236008943644
 20
-422.4183548349097
 30
0.0
 10
1109.474409551223
 20
-422.4183548349097
 30
0.0
 10
1109.630127867156
 20
-422.2409324174193
 30
0.0
 10
1109.630127867156
 20
-421.9959861284181
 30
0.0
 10
1109.630127867156
 20
-421.7076316363026
 30
0.0
 10
1109.455806035603
 20
-421.5667272309559
 30
0.0
 10
1109.105784334304
 20
-421.5667272309559
 30
0.0
 10
1109.105784334304
 20
-421.5667272309559
 30
0.0
 10
1108.520807120906
 20
-421.5667272309559
 30
0.0
 10
1108.520807120906
 20
-421.5667272309559
 30
0.0
 10
1108.520807120906
 20
-421.5667272309559
 30
0.0
 10
1108.520807120906
 20
-423.0932490404701
 30
0.0
 10
1108.520807120906
 20
-423.0932490404701
 30
0.0
  0
SPLINE
  5
421
330
41B
100
AcDbEntity
  8
Layer 2
370
     0
100
AcDbSpline
210
0.0
220
0.0
230
1.0
 70
    11
 71
     3
 72
    20
 73
    16
 74
     0
 42
0.0000000001
 43
0.0000000001
 12
1.0
 22
0.0
 32
0.0
 13
1.0
 23
0.0
 33
0.0
 40
0.0
 40
0.0
 40
0.0
 40
0.0
 40
1.0
 40
1.0
 40
1.0
 40
2.0
 40
2.0
 40
2.0
 40
3.0
 40
3.0
 40
3.0
 40
4.0
 40
4.0
 40
4.0
 40
5.0
 40
5.0
 40
5.0
 40
5.0
 10
1107.965457728684
 20
-422.3315384286814
 30
0.0
 10
1107.965457728684
 20
-421.7076316363026
 30
0.0
 10
1108.417454256348
 20
-421.2232512110765
 30
0.0
 10
1109.023102042658
 20
-421.2232512110765
 30
0.0
 10
1109.621859637992
 20
-421.2232512110765
 30
0.0
 10
1110.072478127462
 20
-421.7076316363026
 30
0.0
 10
1110.072478127462
 20
-422.3315384286814
 30
0.0
 10
1110.072478127462
 20
-422.9554452210601
 30
0.0
 10
1109.621859637992
 20
-423.4391366271892
 30
0.0
 10
1109.023102042658
 20
-423.4391366271892
 30
0.0
 10
1108.417454256348
 20
-423.4391366271892
 30
0.0
 10
1107.965457728684
 20
-422.3315384286814
 30
0.0
 10
1107.965457728684
 20
-422.3315384286814
 30
0.0
 10
1107.965457728684
 20
-422.3315384286814
 30
0.0
 10
1107.965457728684
 20
-422.9554452210601
 30
0.0
 10
1107.965457728684
 20
-422.3315384286814
 30
0.0
  0
SPLINE
  5
422
330
41B
100
AcDbEntity
  8
Layer 2
370
     0
100
AcDbSpline
210
0.0
220
0.0
230
1.0
 70
    11
 71
     3
 72
    20
 73
    16
 74
     0
 42
0.0000000001
 43
0.0000000001
 12
1.0
 22
0.0
 32
0.0
 13
1.0
 23
0.0
 33
0.0
 40
0.0
 40
0.0
 40
0.0
 40
0.0
 40
1.0
 40
1.0
 40
1.0
 40
2.0
 40
2.0
 40
2.0
 40
3.0
 40
3.0
 40
3.0
 40
4.0
 40
4.0
 40
4.0
 40
5.0
 40
5.0
 40
5.0
 40
5.0
 10
1107.716721834652
 20
-422.3315384286814
 30
0.0
 10
1107.716721834652
 20
-423.0491518182589
 30
0.0
 10
1108.301010028947
 20
-423.6348180507514
 30
0.0
 10
1109.01965694717
 20
-423.6348180507514
 30
0.0
 10
1109.737614846299
 20
-423.6348180507514
 30
0.0
 10
1110.321903040594
 20
-423.0491518182589
 30
0.0
 10
1110.321903040594
 20
-422.3315384286814
 30
0.0
 10
1110.321903040594
 20
-421.6132360200068
 30
0.0
 10
1109.737614846299
 20
-421.0282588066113
 30
0.0
 10
1109.01965694717
 20
-421.0282588066113
 30
0.0
 10
1108.301010028947
 20
-421.0282588066113
 30
0.0
 10
1107.716721834652
 20
-422.3315384286814
 30
0.0
 10
1107.716721834652
 20
-422.3315384286814
 30
0.0
 10
1107.716721834652
 20
-422.3315384286814
 30
0.0
 10
1107.716721834652
 20
-421.6132360200068
 30
0.0
 10
1107.716721834652
 20
-422.3315384286814
 30
0.0
  0
HATCH
  5
423
330
41B
100
AcDbEntity
  8
Layer 2
 62
   152
420
    26316
100
AcDbHatch
 10
0.0
 20
0.0
 30
0.0
210
0.0
220
0.0
230
1.0
  2
SOLID
 70
     1
 71
     0
 91
        4
 92
        1
 93
        1
 72
     4
 94
        3
 73
     0
 74
     1
 95
       20
 96
       16
 40
0.0
 40
0.0
 40
0.0
 40
0.0
 40
1.0
 40
1.0
 40
1.0
 40
2.0
 40
2.0
 40
2.0
 40
3.0
 40
3.0
 40
3.0
 40
4.0
 40
4.0
 40
4.0
 40
5.0
 40
5.0
 40
5.0
 40
5.0
 10
1108.770921053135
 20
-421.7617196354211
 10
1108.770921053135
 20
-421.7617196354211
 10
1109.066510245769
 20
-421.7617196354211
 10
1109.066510245769
 20
-421.7617196354211
 10
1109.224984638091
 20
-421.7617196354211
 10
1109.380702954024
 20
-421.8113290104087
 10
1109.380702954024
 20
-421.9846173133167
 10
1109.380702954024
 20
-422.1837438323641
 10
1109.257368535652
 20
-422.2233624304445
 10
1109.066510245769
 20
-422.2233624304445
 10
1109.066510245769
 20
-422.2233624304445
 10
1108.770921053135
 20
-422.2233624304445
 10
1108.770921053135
 20
-422.2233624304445
 10
1108.770921053135
 20
-422.2233624304445
 10
1108.770921053135
 20
-421.7617196354211
 10
1108.770921053135
 20
-421.7617196354211
 97
        0
 97
        0
 92
        1
 93
        1
 72
     4
 94
        3
 73
     0
 74
     1
 95
       35
 96
       31
 40
0.0
 40
0.0
 40
0.0
 40
0.0
 40
1.0
 40
1.0
 40
1.0
 40
2.0
 40
2.0
 40
2.0
 40
3.0
 40
3.0
 40
3.0
 40
4.0
 40
4.0
 40
4.0
 40
5.0
 40
5.0
 40
5.0
 40
6.0
 40
6.0
 40
6.0
 40
7.0
 40
7.0
 40
7.0
 40
8.0
 40
8.0
 40
8.0
 40
9.0
 40
9.0
 40
9.0
 40
10.0
 40
10.0
 40
10.0
 40
10.0
 10
1108.520807120906
 20
-423.0932490404701
 10
1108.520807120906
 20
-423.0932490404701
 10
1108.770921053135
 20
-423.0932490404701
 10
1108.770921053135
 20
-423.0932490404701
 10
1108.770921053135
 20
-423.0932490404701
 10
1108.770921053135
 20
-422.4183548349097
 10
1108.770921053135
 20
-422.4183548349097
 10
1108.770921053135
 20
-422.4183548349097
 10
1108.979004820447
 20
-422.4183548349097
 10
1108.979004820447
 20
-422.4183548349097
 10
1108.979004820447
 20
-422.4183548349097
 10
1109.405507641518
 20
-423.0932490404701
 10
1109.405507641518
 20
-423.0932490404701
 10
1109.405507641518
 20
-423.0932490404701
 10
1109.669401955688
 20
-423.0932490404701
 10
1109.669401955688
 20
-423.0932490404701
 10
1109.669401955688
 20
-423.0932490404701
 10
1109.236008943644
 20
-422.4183548349097
 10
1109.236008943644
 20
-422.4183548349097
 10
1109.474409551223
 20
-422.4183548349097
 10
1109.630127867156
 20
-422.2409324174193
 10
1109.630127867156
 20
-421.9959861284181
 10
1109.630127867156
 20
-421.7076316363026
 10
1109.455806035603
 20
-421.5667272309559
 10
1109.105784334304
 20
-421.5667272309559
 10
1109.105784334304
 20
-421.5667272309559
 10
1108.520807120906
 20
-421.5667272309559
 10
1108.520807120906
 20
-421.5667272309559
 10
1108.520807120906
 20
-421.5667272309559
 10
1108.520807120906
 20
-423.0932490404701
 10
1108.520807120906
 20
-423.0932490404701
 97
        0
 97
        0
 92
        1
 93
        1
 72
     4
 94
        3
 73
     0
 74
     1
 95
       20
 96
       16
 40
0.0
 40
0.0
 40
0.0
 40
0.0
 40
1.0
 40
1.0
 40
1.0
 40
2.0
 40
2.0
 40
2.0
 40
3.0
 40
3.0
 40
3.0
 40
4.0
 40
4.0
 40
4.0
 40
5.0
 40
5.0
 40
5.0
 40
5.0
 10
1107.965457728684
 20
-422.3315384286814
 10
1107.965457728684
 20
-421.7076316363026
 10
1108.417454256348
 20
-421.2232512110765
 10
1109.023102042658
 20
-421.2232512110765
 10
1109.621859637992
 20
-421.2232512110765
 10
1110.072478127462
 20
-421.7076316363026
 10
1110.072478127462
 20
-422.3315384286814
 10
1110.072478127462
 20
-422.9554452210601
 10
1109.621859637992
 20
-423.4391366271892
 10
1109.023102042658
 20
-423.4391366271892
 10
1108.417454256348
 20
-423.4391366271892
 10
1107.965457728684
 20
-422.3315384286814
 10
1107.965457728684
 20
-422.3315384286814
 10
1107.965457728684
 20
-422.3315384286814
 10
1107.965457728684
 20
-422.9554452210601
 10
1107.965457728684
 20
-422.3315384286814
 97
        0
 97
        0
 92
        1
 93
        1
 72
     4
 94
        3
 73
     0
 74
     1
 95
       20
 96
       16
 40
0.0
 40
0.0
 40
0.0
 40
0.0
 40
1.0
 40
1.0
 40
1.0
 40
2.0
 40
2.0
 40
2.0
 40
3.0
 40
3.0
 40
3.0
 40
4.0
 40
4.0
 40
4.0
 40
5.0
 40
5.0
 40
5.0
 40
5.0
 10
1107.716721834652
 20
-422.3315384286814
 10
1107.716721834652
 20
-423.0491518182589
 10
1108.301010028947
 20
-423.6348180507514
 10
1109.01965694717
 20
-423.6348180507514
 10
1109.737614846299
 20
-423.6348180507514
 10
1110.321903040594
 20
-423.0491518182589
 10
1110.321903040594
 20
-422.3315384286814
 10
1110.321903040594
 20
-421.6132360200068
 10
1109.737614846299
 20
-421.0282588066113
 10
1109.01965694717
 20
-421.0282588066113
 10
1108.301010028947
 20
-421.0282588066113
 10
1107.716721834652
 20
-422.3315384286814
 10
1107.716721834652
 20
-422.3315384286814
 10
1107.716721834652
 20
-422.3315384286814
 10
1107.716721834652
 20
-421.6132360200068
 10
1107.716721834652
 20
-422.3315384286814
 97
        0
 97
        0
 75
     2
 76
     1
 98
        0
  0
ENDBLK
  5
41E
330
41B
100
AcDbEntity
  8
0
100
AcDbBlockEnd
  0
ENDSEC
  0
SECTION
  2
ENTITIES
  0
MTEXT
  5
41
330
1F
100
AcDbEntity
  8
Layer 1
 62
     7
420
 16777215
100
AcDbMText
 10
352.4833296848284
 20
26.89917635775003
 30
0.0
 40
17.70000013061528
 41
0.0
 46
0.0
 71
     7
 72
     1
  1
\fMyriad Pro|b0|i0|c0|p34;\W1;800
 73
     1
 44
1.0
  0
MTEXT
  5
42
330
1F
100
AcDbEntity
  8
Layer 1
 62
     7
420
 16777215
100
AcDbMText
 10
156.6828134780819
 20
70.77191022587121
 30
0.0
 40
17.70000013061528
 41
0.0
 46
0.0
 71
     7
 72
     1
  1
\fMyriad Pro|b0|i0|c0|p34;\W1;355
 73
     1
 44
1.0
  0
MTEXT
  5
43
330
1F
100
AcDbEntity
  8
Layer 1
 62
     7
420
 16777215
100
AcDbMText
 10
-129.1859561173346
 20
322.5774489338074
 30
0.0
 40
17.70000013061528
 41
0.0
 46
0.0
 71
     7
 72
     1
  1
\fMyriad Pro|b0|i0|c0|p34;\W1;405
 11
6.123233995736766E-17
 21
1.0
 31
0.0
 73
     1
 44
1.0
  0
MTEXT
  5
44
330
1F
100
AcDbEntity
  8
Layer 1
 62
     7
420
 16777215
100
AcDbMText
 10
-148.0582753129203
 20
-208.7607178060184
 30
0.0
 40
17.70000013061528
 41
0.0
 46
0.0
 71
     7
 72
     1
  1
\fMyriad Pro|b0|i0|c0|p34;\W1;200
 11
6.123233995736766E-17
 21
1.0
 31
0.0
 73
     1
 44
1.0
  0
MTEXT
  5
45
330
1F
100
AcDbEntity
  8
Layer 1
 62
     7
420
 16777215
100
AcDbMText
 10
33.79328612436418
 20
-134.5438682007865
 30
0.0
 40
17.70000013061528
 41
0.0
 46
0.0
 71
     7
 72
     1
  1
\fMyriad Pro|b0|i0|c0|p34;\W1;13
 73
     1
 44
1.0
  0
MTEXT
  5
46
330
1F
100
AcDbEntity
  8
Layer 1
 62
     7
420
 16777215
100
AcDbMText
 10
-85.17894157823326
 20
490.9933048504301
 30
0.0
 40
17.70000013061528
 41
0.0
 46
0.0
 71
     7
 72
     1
  1
\fMyriad Pro|b0|i0|c0|p34;\W1;195
 11
6.123233995736766E-17
 21
1.0
 31
0.0
 73
     1
 44
1.0
  0
MTEXT
  5
47
330
1F
100
AcDbEntity
  8
Layer 1
 62
     7
420
 16777215
100
AcDbMText
 10
-172.0674579614048
 20
322.5774489338074
 30
0.0
 40
17.70000013061528
 41
0.0
 46
0.0
 71
     7
 72
     1
  1
\fMyriad Pro|b0|i0|c0|p34;\W1;510
 11
6.123233995736766E-17
 21
1.0
 31
0.0
 73
     1
 44
1.0
  0
MTEXT
  5
48
330
1F
100
AcDbEntity
  8
Layer 1
 62
     7
420
 16777215
100
AcDbMText
 10
57.90645682688623
 20
211.8744152916935
 30
0.0
 40
17.70000013061528
 41
0.0
 46
0.0
 71
     7
 72
     1
  1
\fMyriad Pro|b0|i0|c0|p34;\W1;R18
 73
     1
 44
1.0
  0
MTEXT
  5
49
330
1F
100
AcDbEntity
  8
Layer 1
 62
     7
420
 16777215
100
AcDbMText
 10
355.9200708135265
 20
70.77191022587121
 30
0.0
 40
17.70000013061528
 41
0.0
 46
0.0
 71
     7
 72
     1
  1
\fMyriad Pro|b0|i0|c0|p34;\W1;30
 73
     1
 44
1.0
  0
MTEXT
  5
4A
330
1F
100
AcDbEntity
  8
Layer 1
 62
     7
420
 16777215
100
AcDbMText
 10
542.3280724759089
 20
70.77191022587121
 30
0.0
 40
17.70000013061528
 41
0.0
 46
0.0
 71
     7
 72
     1
  1
\fMyriad Pro|b0|i0|c0|p34;\W1;355
 73
     1
 44
1.0
  0
POLYLINE
  5
4C
330
1F
100
AcDbEntity
  8
Layer 2
 62
     7
420
 16777215
370
    20
100
AcDb2dPolyline
 66
     1
 10
0.0
 20
0.0
 30
0.0
  0
VERTEX
  5
4D
330
4C
100
AcDbEntity
  8
Layer 2
 62
     7
420
 16777215
370
    20
100
AcDbVertex
100
AcDb2dVertex
 10
-31.25549878619822
 20
118.941951527663
 30
0.0
  0
VERTEX
  5
4E
330
4C
100
AcDbEntity
  8
Layer 2
 62
     7
420
 16777215
370
    20
100
AcDbVertex
100
AcDb2dVertex
 10
-31.25549876372849
 20
619.4145738214539
 30
0.0
  0
SEQEND
  5
4F
330
4C
100
AcDbEntity
  8
Layer 2
 62
     7
420
 16777215
370
    20
  0
POLYLINE
  5
50
330
1F
100
AcDbEntity
  8
Layer 2
 62
     7
420
 16777215
370
    20
100
AcDb2dPolyline
 66
     1
 10
0.0
 20
0.0
 30
0.0
  0
VERTEX
  5
51
330
50
100
AcDbEntity
  8
Layer 2
 62
     7
420
 16777215
370
    20
100
AcDbVertex
100
AcDb2dVertex
 10
-1.465433456094339
 20
159.0230808685478
 30
0.0
  0
VERTEX
  5
52
330
50
100
AcDbEntity
  8
Layer 2
 62
     7
420
 16777215
370
    20
100
AcDbVertex
100
AcDb2dVertex
 10
-1.465433439240755
 20
534.3775734161619
 30
0.0
  0
SEQEND
  5
53
330
50
100
AcDbEntity
  8
Layer 2
 62
     7
420
 16777215
370
    20
  0
POLYLINE
  5
54
330
1F
100
AcDbEntity
  8
Layer 2
 62
     7
420
 16777215
370
    20
100
AcDb2dPolyline
 66
     1
 10
0.0
 20
0.0
 30
0.0
  0
VERTEX
  5
55
330
54
100
AcDbEntity
  8
Layer 2
 62
     7
420
 16777215
370
    20
100
AcDbVertex
100
AcDb2dVertex
 10
-26.3806881712906
 20
624.2893155407462
 30
0.0
  0
VERTEX
  5
56
330
54
100
AcDbEntity
  8
Layer 2
 62
     7
420
 16777215
370
    20
100
AcDbVertex
100
AcDb2dVertex
 10
-29.08890097305457
 20
623.7477005296046
 30
0.0
  0
VERTEX
  5
57
330
54
100
AcDbEntity
  8
Layer 2
 62
     7
420
 16777215
370
    20
100
AcDbVertex
100
AcDb2dVertex
 10
-30.71388375236603
 20
621.5811027391969
 30
0.0
  0
VERTEX
  5
58
330
54
100
AcDbEntity
  8
Layer 2
 62
     7
420
 16777215
370
    20
100
AcDbVertex
100
AcDb2dVertex
 10
-31.25549876372849
 20
619.4145738214539
 30
0.0
  0
SEQEND
  5
59
330
54
100
AcDbEntity
  8
Layer 2
 62
     7
420
 16777215
370
    20
  0
POLYLINE
  5
5A
330
1F
100
AcDbEntity
  8
Layer 2
 62
     7
420
 16777215
370
    20
100
AcDb2dPolyline
 66
     1
 10
0.0
 20
0.0
 30
0.0
  0
VERTEX
  5
5B
330
5A
100
AcDbEntity
  8
Layer 2
 62
     7
420
 16777215
370
    20
100
AcDbVertex
100
AcDb2dVertex
 10
-31.25549878619822
 20
118.941951527663
 30
0.0
  0
VERTEX
  5
5C
330
5A
100
AcDbEntity
  8
Layer 2
 62
     7
420
 16777215
370
    20
100
AcDbVertex
100
AcDb2dVertex
 10
-30.71388377505651
 20
116.2337731622515
 30
0.0
  0
VERTEX
  5
5D
330
5A
100
AcDbEntity
  8
Layer 2
 62
     7
420
 16777215
370
    20
100
AcDbVertex
100
AcDb2dVertex
 10
-29.08890099591446
 20
114.6088592556792
 30
0.0
  0
VERTEX
  5
5E
330
5A
100
AcDbEntity
  8
Layer 2
 62
     7
420
 16777215
370
    20
100
AcDbVertex
100
AcDb2dVertex
 10
-26.38068819419637
 20
114.0672098079356
 30
0.0
  0
SEQEND
  5
5F
330
5A
100
AcDbEntity
  8
Layer 2
 62
     7
420
 16777215
370
    20
  0
POLYLINE
  5
60
330
1F
100
AcDbEntity
  8
Layer 2
 62
     7
420
 16777215
370
    20
100
AcDb2dPolyline
 66
     1
 10
0.0
 20
0.0
 30
0.0
  0
VERTEX
  5
61
330
60
100
AcDbEntity
  8
Layer 2
 62
     7
420
 16777215
370
    20
100
AcDbVertex
100
AcDb2dVertex
 10
13.70047560393505
 20
549.5434135852684
 30
0.0
  0
VERTEX
  5
62
330
60
100
AcDbEntity
  8
Layer 2
 62
     7
420
 16777215
370
    20
100
AcDbVertex
100
AcDb2dVertex
 10
7.742434989115866
 20
547.9184996790303
 30
0.0
  0
VERTEX
  5
63
330
60
100
AcDbEntity
  8
Layer 2
 62
     7
420
 16777215
370
    20
100
AcDbVertex
100
AcDb2dVertex
 10
2.867624396752094
 20
544.6686718662444
 30
0.0
  0
VERTEX
  5
64
330
60
100
AcDbEntity
  8
Layer 2
 62
     7
420
 16777215
370
    20
100
AcDbVertex
100
AcDb2dVertex
 10
-0.3822034164721993
 20
539.793930146885
 30
0.0
  0
VERTEX
  5
65
330
60
100
AcDbEntity
  8
Layer 2
 62
     7
420
 16777215
370
    20
100
AcDbVertex
100
AcDb2dVertex
 10
-1.465433439240755
 20
534.3775734161619
 30
0.0
  0
SEQEND
  5
66
330
60
100
AcDbEntity
  8
Layer 2
 62
     7
420
 16777215
370
    20
  0
POLYLINE
  5
67
330
1F
100
AcDbEntity
  8
Layer 2
 62
     7
420
 16777215
370
    20
100
AcDb2dPolyline
 66
     1
 10
0.0
 20
0.0
 30
0.0
  0
VERTEX
  5
68
330
67
100
AcDbEntity
  8
Layer 2
 62
     7
420
 16777215
370
    20
100
AcDbVertex
100
AcDb2dVertex
 10
383.6385425305311
 20
159.0230808512604
 30
0.0
  0
VERTEX
  5
69
330
67
100
AcDbEntity
  8
Layer 2
 62
     7
420
 16777215
370
    20
100
AcDbVertex
100
AcDb2dVertex
 10
383.6385425473828
 20
534.377573398872
 30
0.0
  0
SEQEND
  5
6A
330
67
100
AcDbEntity
  8
Layer 2
 62
     7
420
 16777215
370
    20
  0
POLYLINE
  5
6B
330
1F
100
AcDbEntity
  8
Layer 2
 62
     7
420
 16777215
370
    20
100
AcDb2dPolyline
 66
     1
 10
0.0
 20
0.0
 30
0.0
  0
VERTEX
  5
6C
330
6B
100
AcDbEntity
  8
Layer 2
 62
     7
420
 16777215
370
    20
100
AcDbVertex
100
AcDb2dVertex
 10
353.8484772022285
 20
159.0230808525951
 30
0.0
  0
VERTEX
  5
6D
330
6B
100
AcDbEntity
  8
Layer 2
 62
     7
420
 16777215
370
    20
100
AcDbVertex
100
AcDb2dVertex
 10
353.8484772190801
 20
534.3775734002093
 30
0.0
  0
SEQEND
  5
6E
330
6B
100
AcDbEntity
  8
Layer 2
 62
     7
420
 16777215
370
    20
  0
POLYLINE
  5
6F
330
1F
100
AcDbEntity
  8
Layer 2
 62
     7
420
 16777215
370
    20
100
AcDb2dPolyline
 66
     1
 10
0.0
 20
0.0
 30
0.0
  0
VERTEX
  5
70
330
6F
100
AcDbEntity
  8
Layer 2
 62
     7
420
 16777215
370
    20
100
AcDbVertex
100
AcDb2dVertex
 10
338.6827059044763
 20
143.8572406834932
 30
0.0
  0
VERTEX
  5
71
330
6F
100
AcDbEntity
  8
Layer 2
 62
     7
420
 16777215
370
    20
100
AcDbVertex
100
AcDb2dVertex
 10
344.6406087738455
 20
144.9405051421089
 30
0.0
  0
VERTEX
  5
72
330
6F
100
AcDbEntity
  8
Layer 2
 62
     7
420
 16777215
370
    20
100
AcDbVertex
100
AcDb2dVertex
 10
349.5154193662119
 20
148.1903329548943
 30
0.0
  0
VERTEX
  5
73
330
6F
100
AcDbEntity
  8
Layer 2
 62
     7
420
 16777215
370
    20
100
AcDbVertex
100
AcDb2dVertex
 10
352.7652471794362
 20
153.0650746742546
 30
0.0
  0
VERTEX
  5
74
330
6F
100
AcDbEntity
  8
Layer 2
 62
     7
420
 16777215
370
    20
100
AcDbVertex
100
AcDb2dVertex
 10
353.8484772022285
 20
159.0230808525951
 30
0.0
  0
SEQEND
  5
75
330
6F
100
AcDbEntity
  8
Layer 2
 62
     7
420
 16777215
370
    20
  0
POLYLINE
  5
76
330
1F
100
AcDbEntity
  8
Layer 2
 62
     7
420
 16777215
370
    20
100
AcDb2dPolyline
 66
     1
 10
0.0
 20
0.0
 30
0.0
  0
VERTEX
  5
77
330
76
100
AcDbEntity
  8
Layer 2
 62
     7
420
 16777215
370
    20
100
AcDbVertex
100
AcDb2dVertex
 10
13.70047560393505
 20
549.5434135852684
 30
0.0
  0
VERTEX
  5
78
330
76
100
AcDbEntity
  8
Layer 2
 62
     7
420
 16777215
370
    20
100
AcDbVertex
100
AcDb2dVertex
 10
338.6827059226903
 20
549.5434135706739
 30
0.0
  0
SEQEND
  5
79
330
76
100
AcDbEntity
  8
Layer 2
 62
     7
420
 16777215
370
    20
  0
POLYLINE
  5
7A
330
1F
100
AcDbEntity
  8
Layer 2
 62
     7
420
 16777215
370
    20
100
AcDb2dPolyline
 66
     1
 10
0.0
 20
0.0
 30
0.0
  0
VERTEX
  5
7B
330
7A
100
AcDbEntity
  8
Layer 2
 62
     7
420
 16777215
370
    20
100
AcDbVertex
100
AcDb2dVertex
 10
353.8484772190801
 20
534.3775734002093
 30
0.0
  0
VERTEX
  5
7C
330
7A
100
AcDbEntity
  8
Layer 2
 62
     7
420
 16777215
370
    20
100
AcDbVertex
100
AcDb2dVertex
 10
352.7652471967954
 20
539.7939301310312
 30
0.0
  0
VERTEX
  5
7D
330
7A
100
AcDbEntity
  8
Layer 2
 62
     7
420
 16777215
370
    20
100
AcDbVertex
100
AcDb2dVertex
 10
349.5154193840126
 20
544.6686718506796
 30
0.0
  0
VERTEX
  5
7E
330
7A
100
AcDbEntity
  8
Layer 2
 62
     7
420
 16777215
370
    20
100
AcDbVertex
100
AcDb2dVertex
 10
344.6406087919363
 20
547.9184996639033
 30
0.0
  0
VERTEX
  5
7F
330
7A
100
AcDbEntity
  8
Layer 2
 62
     7
420
 16777215
370
    20
100
AcDbVertex
100
AcDb2dVertex
 10
338.6827059226903
 20
549.5434135706739
 30
0.0
  0
SEQEND
  5
80
330
7A
100
AcDbEntity
  8
Layer 2
 62
     7
420
 16777215
370
    20
  0
POLYLINE
  5
81
330
1F
100
AcDbEntity
  8
Layer 2
 62
     7
420
 16777215
370
    20
100
AcDb2dPolyline
 66
     1
 10
0.0
 20
0.0
 30
0.0
  0
VERTEX
  5
82
330
81
100
AcDbEntity
  8
Layer 2
 62
     7
420
 16777215
370
    20
100
AcDbVertex
100
AcDb2dVertex
 10
763.8677079458257
 20
624.2893155052674
 30
0.0
  0
VERTEX
  5
83
330
81
100
AcDbEntity
  8
Layer 2
 62
     7
420
 16777215
370
    20
100
AcDbVertex
100
AcDb2dVertex
 10
-26.3806881712906
 20
624.2893155407462
 30
0.0
  0
SEQEND
  5
84
330
81
100
AcDbEntity
  8
Layer 2
 62
     7
420
 16777215
370
    20
  0
POLYLINE
  5
85
330
1F
100
AcDbEntity
  8
Layer 2
 62
     7
420
 16777215
370
    20
100
AcDb2dPolyline
 66
     1
 10
0.0
 20
0.0
 30
0.0
  0
VERTEX
  5
86
330
85
100
AcDbEntity
  8
Layer 2
 62
     7
420
 16777215
370
    20
100
AcDbVertex
100
AcDb2dVertex
 10
763.8677079229203
 20
114.0672097724573
 30
0.0
  0
VERTEX
  5
87
330
85
100
AcDbEntity
  8
Layer 2
 62
     7
420
 16777215
370
    20
100
AcDbVertex
100
AcDb2dVertex
 10
-26.38068819419637
 20
114.0672098079356
 30
0.0
  0
SEQEND
  5
88
330
85
100
AcDbEntity
  8
Layer 2
 62
     7
420
 16777215
370
    20
  0
POLYLINE
  5
89
330
1F
100
AcDbEntity
  8
Layer 2
 62
     7
420
 16777215
370
    20
100
AcDb2dPolyline
 66
     1
 10
0.0
 20
0.0
 30
0.0
  0
VERTEX
  5
8A
330
89
100
AcDbEntity
  8
Layer 2
 62
     7
420
 16777215
370
    20
100
AcDbVertex
100
AcDb2dVertex
 10
338.6827059044763
 20
143.8572406834932
 30
0.0
  0
VERTEX
  5
8B
330
89
100
AcDbEntity
  8
Layer 2
 62
     7
420
 16777215
370
    20
100
AcDbVertex
100
AcDb2dVertex
 10
13.70047558572106
 20
143.8572406980854
 30
0.0
  0
SEQEND
  5
8C
330
89
100
AcDbEntity
  8
Layer 2
 62
     7
420
 16777215
370
    20
  0
POLYLINE
  5
8D
330
1F
100
AcDbEntity
  8
Layer 2
 62
     7
420
 16777215
370
    20
100
AcDb2dPolyline
 66
     1
 10
0.0
 20
0.0
 30
0.0
  0
VERTEX
  5
8E
330
8D
100
AcDbEntity
  8
Layer 2
 62
     7
420
 16777215
370
    20
100
AcDbVertex
100
AcDb2dVertex
 10
768.7424496651148
 20
619.4145737855378
 30
0.0
  0
VERTEX
  5
8F
330
8D
100
AcDbEntity
  8
Layer 2
 62
     7
420
 16777215
370
    20
100
AcDbVertex
100
AcDb2dVertex
 10
768.2008346539513
 20
621.5811027033301
 30
0.0
  0
VERTEX
  5
90
330
8D
100
AcDbEntity
  8
Layer 2
 62
     7
420
 16777215
370
    20
100
AcDbVertex
100
AcDb2dVertex
 10
766.5759207475445
 20
623.7477004938786
 30
0.0
  0
VERTEX
  5
91
330
8D
100
AcDbEntity
  8
Layer 2
 62
     7
420
 16777215
370
    20
100
AcDbVertex
100
AcDb2dVertex
 10
763.8677079458257
 20
624.2893155052674
 30
0.0
  0
SEQEND
  5
92
330
8D
100
AcDbEntity
  8
Layer 2
 62
     7
420
 16777215
370
    20
  0
POLYLINE
  5
93
330
1F
100
AcDbEntity
  8
Layer 2
 62
     7
420
 16777215
370
    20
100
AcDb2dPolyline
 66
     1
 10
0.0
 20
0.0
 30
0.0
  0
VERTEX
  5
94
330
93
100
AcDbEntity
  8
Layer 2
 62
     7
420
 16777215
370
    20
100
AcDbVertex
100
AcDb2dVertex
 10
763.8677079229203
 20
114.0672097724573
 30
0.0
  0
VERTEX
  5
95
330
93
100
AcDbEntity
  8
Layer 2
 62
     7
420
 16777215
370
    20
100
AcDbVertex
100
AcDb2dVertex
 10
766.5759207246846
 20
114.6088592199545
 30
0.0
  0
VERTEX
  5
96
330
93
100
AcDbEntity
  8
Layer 2
 62
     7
420
 16777215
370
    20
100
AcDbVertex
100
AcDb2dVertex
 10
768.2008346312608
 20
116.2337731263831
 30
0.0
  0
VERTEX
  5
97
330
93
100
AcDbEntity
  8
Layer 2
 62
     7
420
 16777215
370
    20
100
AcDbVertex
100
AcDb2dVertex
 10
768.7424496426496
 20
118.9419514917432
 30
0.0
  0
SEQEND
  5
98
330
93
100
AcDbEntity
  8
Layer 2
 62
     7
420
 16777215
370
    20
  0
POLYLINE
  5
99
330
1F
100
AcDbEntity
  8
Layer 2
 62
     7
420
 16777215
370
    20
100
AcDb2dPolyline
 66
     1
 10
0.0
 20
0.0
 30
0.0
  0
VERTEX
  5
9A
330
99
100
AcDbEntity
  8
Layer 2
 62
     7
420
 16777215
370
    20
100
AcDbVertex
100
AcDb2dVertex
 10
-1.465433456094339
 20
159.0230808685478
 30
0.0
  0
VERTEX
  5
9B
330
99
100
AcDbEntity
  8
Layer 2
 62
     7
420
 16777215
370
    20
100
AcDbVertex
100
AcDb2dVertex
 10
-0.3822034338340085
 20
153.0650746901126
 30
0.0
  0
VERTEX
  5
9C
330
99
100
AcDbEntity
  8
Layer 2
 62
     7
420
 16777215
370
    20
100
AcDbVertex
100
AcDb2dVertex
 10
2.867624378951362
 20
148.1903329704594
 30
0.0
  0
VERTEX
  5
9D
330
99
100
AcDbEntity
  8
Layer 2
 62
     7
420
 16777215
370
    20
100
AcDbVertex
100
AcDb2dVertex
 10
7.742434971025086
 20
144.9405051572351
 30
0.0
  0
VERTEX
  5
9E
330
99
100
AcDbEntity
  8
Layer 2
 62
     7
420
 16777215
370
    20
100
AcDbVertex
100
AcDb2dVertex
 10
13.70047558572106
 20
143.8572406980854
 30
0.0
  0
SEQEND
  5
9F
330
99
100
AcDbEntity
  8
Layer 2
 62
     7
420
 16777215
370
    20
  0
POLYLINE
  5
A0
330
1F
100
AcDbEntity
  8
Layer 2
 62
     7
420
 16777215
370
    20
100
AcDb2dPolyline
 66
     1
 10
0.0
 20
0.0
 30
0.0
  0
VERTEX
  5
A1
330
A0
100
AcDbEntity
  8
Layer 2
 62
     7
420
 16777215
370
    20
100
AcDbVertex
100
AcDb2dVertex
 10
223.3138874283426
 20
429.2999911128258
 30
0.0
  0
VERTEX
  5
A2
330
A0
100
AcDbEntity
  8
Layer 2
 62
     7
420
 16777215
370
    20
100
AcDbVertex
100
AcDb2dVertex
 10
222.2306574062285
 20
438.5077906679107
 30
0.0
  0
VERTEX
  5
A3
330
A0
100
AcDbEntity
  8
Layer 2
 62
     7
420
 16777215
370
    20
100
AcDbVertex
100
AcDb2dVertex
 10
219.5224446048775
 20
447.1739752118083
 30
0.0
  0
VERTEX
  5
A4
330
A0
100
AcDbEntity
  8
Layer 2
 62
     7
420
 16777215
370
    20
100
AcDbVertex
100
AcDb2dVertex
 10
215.1893867697111
 20
455.2985447445149
 30
0.0
  0
VERTEX
  5
A5
330
A0
100
AcDbEntity
  8
Layer 2
 62
     7
420
 16777215
370
    20
100
AcDbVertex
100
AcDb2dVertex
 10
209.7729611665676
 20
462.8814992660052
 30
0.0
  0
VERTEX
  5
A6
330
A0
100
AcDbEntity
  8
Layer 2
 62
     7
420
 16777215
370
    20
100
AcDbVertex
100
AcDb2dVertex
 10
202.1900755182771
 20
468.297855997113
 30
0.0
  0
VERTEX
  5
A7
330
A0
100
AcDbEntity
  8
Layer 2
 62
     7
420
 16777215
370
    20
100
AcDbVertex
100
AcDb2dVertex
 10
194.0655748586728
 20
472.6309138330118
 30
0.0
  0
VERTEX
  5
A8
330
A0
100
AcDbEntity
  8
Layer 2
 62
     7
420
 16777215
370
    20
100
AcDbVertex
100
AcDb2dVertex
 10
185.3993214423076
 20
475.3391266351397
 30
0.0
  0
VERTEX
  5
A9
330
A0
100
AcDbEntity
  8
Layer 2
 62
     7
420
 16777215
370
    20
100
AcDbVertex
100
AcDb2dVertex
 10
176.1915907600323
 20
476.422425530793
 30
0.0
  0
VERTEX
  5
AA
330
A0
100
AcDbEntity
  8
Layer 2
 62
     7
420
 16777215
370
    20
100
AcDbVertex
100
AcDb2dVertex
 10
166.9837223322327
 20
475.3391266359687
 30
0.0
  0
VERTEX
  5
AB
330
A0
100
AcDbEntity
  8
Layer 2
 62
     7
420
 16777215
370
    20
100
AcDbVertex
100
AcDb2dVertex
 10
157.7758539043612
 20
472.6309138346382
 30
0.0
  0
VERTEX
  5
AC
330
A0
100
AcDbEntity
  8
Layer 2
 62
     7
420
 16777215
370
    20
100
AcDbVertex
100
AcDb2dVertex
 10
149.6513532443668
 20
468.2978559994732
 30
0.0
  0
VERTEX
  5
AD
330
A0
100
AcDbEntity
  8
Layer 2
 62
     7
420
 16777215
370
    20
100
AcDbVertex
100
AcDb2dVertex
 10
142.6100826068484
 20
462.8814992690216
 30
0.0
  0
VERTEX
  5
AE
330
A0
100
AcDbEntity
  8
Layer 2
 62
     7
420
 16777215
370
    20
100
AcDbVertex
100
AcDb2dVertex
 10
136.6520419917648
 20
455.2985447480391
 30
0.0
  0
VERTEX
  5
AF
330
A0
100
AcDbEntity
  8
Layer 2
 62
     7
420
 16777215
370
    20
100
AcDbVertex
100
AcDb2dVertex
 10
132.3189841558695
 20
447.1739752157208
 30
0.0
  0
VERTEX
  5
B0
330
A0
100
AcDbEntity
  8
Layer 2
 62
     7
420
 16777215
370
    20
100
AcDbVertex
100
AcDb2dVertex
 10
129.6107713537382
 20
438.5077906720702
 30
0.0
  0
VERTEX
  5
B1
330
A0
100
AcDbEntity
  8
Layer 2
 62
     7
420
 16777215
370
    20
100
AcDbVertex
100
AcDb2dVertex
 10
129.0691563420626
 20
429.2999911170556
 30
0.0
  0
VERTEX
  5
B2
330
A0
100
AcDbEntity
  8
Layer 2
 62
     7
420
 16777215
370
    20
100
AcDbVertex
100
AcDb2dVertex
 10
129.6107713529091
 20
420.0921226892813
 30
0.0
  0
VERTEX
  5
B3
330
A0
100
AcDbEntity
  8
Layer 2
 62
     7
420
 16777215
370
    20
100
AcDbVertex
100
AcDb2dVertex
 10
132.3189841542396
 20
410.8843231341219
 30
0.0
  0
VERTEX
  5
B4
330
A0
100
AcDbEntity
  8
Layer 2
 62
     7
420
 16777215
370
    20
100
AcDbVertex
100
AcDb2dVertex
 10
136.6520419894034
 20
402.7597536014158
 30
0.0
  0
VERTEX
  5
B5
330
A0
100
AcDbEntity
  8
Layer 2
 62
     7
420
 16777215
370
    20
100
AcDbVertex
100
AcDb2dVertex
 10
142.610082603835
 20
395.7184829638761
 30
0.0
  0
VERTEX
  5
B6
330
A0
100
AcDbEntity
  8
Layer 2
 62
     7
420
 16777215
370
    20
100
AcDbVertex
100
AcDb2dVertex
 10
149.65135324084
 20
389.7604423488141
 30
0.0
  0
VERTEX
  5
B7
330
A0
100
AcDbEntity
  8
Layer 2
 62
     7
420
 16777215
370
    20
100
AcDbVertex
100
AcDb2dVertex
 10
157.7758539004442
 20
385.4273845129188
 30
0.0
  0
VERTEX
  5
B8
330
A0
100
AcDbEntity
  8
Layer 2
 62
     7
420
 16777215
370
    20
100
AcDbVertex
100
AcDb2dVertex
 10
166.9837223280719
 20
382.7191717107627
 30
0.0
  0
VERTEX
  5
B9
330
A0
100
AcDbEntity
  8
Layer 2
 62
     7
420
 16777215
370
    20
100
AcDbVertex
100
AcDb2dVertex
 10
176.1915907557997
 20
382.1775566990848
 30
0.0
  0
VERTEX
  5
BA
330
A0
100
AcDbEntity
  8
Layer 2
 62
     7
420
 16777215
370
    20
100
AcDbVertex
100
AcDb2dVertex
 10
185.3993214381493
 20
382.7191717099371
 30
0.0
  0
VERTEX
  5
BB
330
A0
100
AcDbEntity
  8
Layer 2
 62
     7
420
 16777215
370
    20
100
AcDbVertex
100
AcDb2dVertex
 10
194.0655748547559
 20
385.4273845112924
 30
0.0
  0
VERTEX
  5
BC
330
A0
100
AcDbEntity
  8
Layer 2
 62
     7
420
 16777215
370
    20
100
AcDbVertex
100
AcDb2dVertex
 10
202.1900755147503
 20
389.7604423464539
 30
0.0
  0
VERTEX
  5
BD
330
A0
100
AcDbEntity
  8
Layer 2
 62
     7
420
 16777215
370
    20
100
AcDbVertex
100
AcDb2dVertex
 10
209.7729611635542
 20
395.7184829608598
 30
0.0
  0
VERTEX
  5
BE
330
A0
100
AcDbEntity
  8
Layer 2
 62
     7
420
 16777215
370
    20
100
AcDbVertex
100
AcDb2dVertex
 10
215.1893867673523
 20
402.7597535978915
 30
0.0
  0
VERTEX
  5
BF
330
A0
100
AcDbEntity
  8
Layer 2
 62
     7
420
 16777215
370
    20
100
AcDbVertex
100
AcDb2dVertex
 10
219.5224446032476
 20
410.8843231302063
 30
0.0
  0
VERTEX
  5
C0
330
A0
100
AcDbEntity
  8
Layer 2
 62
     7
420
 16777215
370
    20
100
AcDbVertex
100
AcDb2dVertex
 10
222.230657405402
 20
420.0921226851221
 30
0.0
  0
VERTEX
  5
C1
330
A0
100
AcDbEntity
  8
Layer 2
 62
     7
420
 16777215
370
    20
100
AcDbVertex
100
AcDb2dVertex
 10
223.3138874283426
 20
429.2999911128258
 30
0.0
  0
SEQEND
  5
C2
330
A0
100
AcDbEntity
  8
Layer 2
 62
     7
420
 16777215
370
    20
  0
POLYLINE
  5
C3
330
1F
100
AcDbEntity
  8
Layer 2
 62
     7
420
 16777215
370
    20
100
AcDb2dPolyline
 66
     1
 10
0.0
 20
0.0
 30
0.0
  0
VERTEX
  5
C4
330
C3
100
AcDbEntity
  8
Layer 2
 62
     7
420
 16777215
370
    20
100
AcDbVertex
100
AcDb2dVertex
 10
232.5217558560934
 20
429.2999911124093
 30
0.0
  0
VERTEX
  5
C5
330
C3
100
AcDbEntity
  8
Layer 2
 62
     7
420
 16777215
370
    20
100
AcDbVertex
100
AcDb2dVertex
 10
231.4385258340538
 20
440.132704573997
 30
0.0
  0
VERTEX
  5
C6
330
C3
100
AcDbEntity
  8
Layer 2
 62
     7
420
 16777215
370
    20
100
AcDbVertex
100
AcDb2dVertex
 10
228.1886980215354
 20
450.9654869083972
 30
0.0
  0
VERTEX
  5
C7
330
C3
100
AcDbEntity
  8
Layer 2
 62
     7
420
 16777215
370
    20
100
AcDbVertex
100
AcDb2dVertex
 10
223.3138874297543
 20
460.7149014749206
 30
0.0
  0
VERTEX
  5
C8
330
C3
100
AcDbEntity
  8
Layer 2
 62
     7
420
 16777215
370
    20
100
AcDbVertex
100
AcDb2dVertex
 10
216.2726167928699
 20
469.3810860190085
 30
0.0
  0
VERTEX
  5
C9
330
C3
100
AcDbEntity
  8
Layer 2
 62
     7
420
 16777215
370
    20
100
AcDbVertex
100
AcDb2dVertex
 10
207.6065011221239
 20
476.4224255293819
 30
0.0
  0
VERTEX
  5
CA
330
C3
100
AcDbEntity
  8
Layer 2
 62
     7
420
 16777215
370
    20
100
AcDbVertex
100
AcDb2dVertex
 10
197.8570176833289
 20
481.2970983766166
 30
0.0
  0
VERTEX
  5
CB
330
C3
100
AcDbEntity
  8
Layer 2
 62
     7
420
 16777215
370
    20
100
AcDbVertex
100
AcDb2dVertex
 10
187.0243042219347
 20
484.5469261901046
 30
0.0
  0
VERTEX
  5
CC
330
C3
100
AcDbEntity
  8
Layer 2
 62
     7
420
 16777215
370
    20
100
AcDbVertex
100
AcDb2dVertex
 10
176.191590760443
 20
485.6302250858288
 30
0.0
  0
VERTEX
  5
CD
330
C3
100
AcDbEntity
  8
Layer 2
 62
     7
420
 16777215
370
    20
100
AcDbVertex
100
AcDb2dVertex
 10
164.8171245421671
 20
484.5469261911031
 30
0.0
  0
VERTEX
  5
CE
330
C3
100
AcDbEntity
  8
Layer 2
 62
     7
420
 16777215
370
    20
100
AcDbVertex
100
AcDb2dVertex
 10
154.5260260917427
 20
481.2970983785568
 30
0.0
  0
VERTEX
  5
CF
330
C3
100
AcDbEntity
  8
Layer 2
 62
     7
420
 16777215
370
    20
100
AcDbVertex
100
AcDb2dVertex
 10
144.7765426525113
 20
476.4224255322041
 30
0.0
  0
VERTEX
  5
D0
330
C3
100
AcDbEntity
  8
Layer 2
 62
     7
420
 16777215
370
    20
100
AcDbVertex
100
AcDb2dVertex
 10
136.1104269811339
 20
469.3810860226104
 30
0.0
  0
VERTEX
  5
D1
330
C3
100
AcDbEntity
  8
Layer 2
 62
     7
420
 16777215
370
    20
100
AcDbVertex
100
AcDb2dVertex
 10
129.0691563434717
 20
460.7149014791504
 30
0.0
  0
VERTEX
  5
D2
330
C3
100
AcDbEntity
  8
Layer 2
 62
     7
420
 16777215
370
    20
100
AcDbVertex
100
AcDb2dVertex
 10
123.652730739553
 20
450.9654869130928
 30
0.0
  0
VERTEX
  5
D3
330
C3
100
AcDbEntity
  8
Layer 2
 62
     7
420
 16777215
370
    20
100
AcDbVertex
100
AcDb2dVertex
 10
120.4029029260617
 20
440.1327045789852
 30
0.0
  0
VERTEX
  5
D4
330
C3
100
AcDbEntity
  8
Layer 2
 62
     7
420
 16777215
370
    20
100
AcDbVertex
100
AcDb2dVertex
 10
119.3196729030468
 20
429.2999911174929
 30
0.0
  0
VERTEX
  5
D5
330
C3
100
AcDbEntity
  8
Layer 2
 62
     7
420
 16777215
370
    20
100
AcDbVertex
100
AcDb2dVertex
 10
120.4029029250633
 20
417.9255937719298
 30
0.0
  0
VERTEX
  5
D6
330
C3
100
AcDbEntity
  8
Layer 2
 62
     7
420
 16777215
370
    20
100
AcDbVertex
100
AcDb2dVertex
 10
123.6527307376048
 20
407.6344953215088
 30
0.0
  0
VERTEX
  5
D7
330
C3
100
AcDbEntity
  8
Layer 2
 62
     7
420
 16777215
370
    20
100
AcDbVertex
100
AcDb2dVertex
 10
129.0691563406508
 20
397.885011882247
 30
0.0
  0
VERTEX
  5
D8
330
C3
100
AcDbEntity
  8
Layer 2
 62
     7
420
 16777215
370
    20
100
AcDbVertex
100
AcDb2dVertex
 10
136.1104269775327
 20
389.2188273381556
 30
0.0
  0
VERTEX
  5
D9
330
C3
100
AcDbEntity
  8
Layer 2
 62
     7
420
 16777215
370
    20
100
AcDbVertex
100
AcDb2dVertex
 10
144.7765426482786
 20
382.1775567004959
 30
0.0
  0
VERTEX
  5
DA
330
C3
100
AcDbEntity
  8
Layer 2
 62
     7
420
 16777215
370
    20
100
AcDbVertex
100
AcDb2dVertex
 10
154.5260260870506
 20
376.7611655329323
 30
0.0
  0
VERTEX
  5
DB
330
C3
100
AcDbEntity
  8
Layer 2
 62
     7
420
 16777215
370
    20
100
AcDbVertex
100
AcDb2dVertex
 10
164.8171245371824
 20
373.5113721558222
 30
0.0
  0
VERTEX
  5
DC
330
C3
100
AcDbEntity
  8
Layer 2
 62
     7
420
 16777215
370
    20
100
AcDbVertex
100
AcDb2dVertex
 10
176.1915907553607
 20
372.4280732600736
 30
0.0
  0
VERTEX
  5
DD
330
C3
100
AcDbEntity
  8
Layer 2
 62
     7
420
 16777215
370
    20
100
AcDbVertex
100
AcDb2dVertex
 10
187.02430421695
 20
373.5113721548272
 30
0.0
  0
VERTEX
  5
DE
330
C3
100
AcDbEntity
  8
Layer 2
 62
     7
420
 16777215
370
    20
100
AcDbVertex
100
AcDb2dVertex
 10
197.8570176786368
 20
376.7611655309886
 30
0.0
  0
VERTEX
  5
DF
330
C3
100
AcDbEntity
  8
Layer 2
 62
     7
420
 16777215
370
    20
100
AcDbVertex
100
AcDb2dVertex
 10
207.6065011178939
 20
382.1775566976769
 30
0.0
  0
VERTEX
  5
E0
330
C3
100
AcDbEntity
  8
Layer 2
 62
     7
420
 16777215
370
    20
100
AcDbVertex
100
AcDb2dVertex
 10
216.2726167892712
 20
389.2188273345607
 30
0.0
  0
VERTEX
  5
E1
330
C3
100
AcDbEntity
  8
Layer 2
 62
     7
420
 16777215
370
    20
100
AcDbVertex
100
AcDb2dVertex
 10
223.3138874269334
 20
397.8850118780172
 30
0.0
  0
VERTEX
  5
E2
330
C3
100
AcDbEntity
  8
Layer 2
 62
     7
420
 16777215
370
    20
100
AcDbVertex
100
AcDb2dVertex
 10
228.1886980195898
 20
407.6344953168132
 30
0.0
  0
VERTEX
  5
E3
330
C3
100
AcDbEntity
  8
Layer 2
 62
     7
420
 16777215
370
    20
100
AcDbVertex
100
AcDb2dVertex
 10
231.4385258330554
 20
417.925593766945
 30
0.0
  0
VERTEX
  5
E4
330
C3
100
AcDbEntity
  8
Layer 2
 62
     7
420
 16777215
370
    20
100
AcDbVertex
100
AcDb2dVertex
 10
232.5217558560934
 20
429.2999911124093
 30
0.0
  0
SEQEND
  5
E5
330
C3
100
AcDbEntity
  8
Layer 2
 62
     7
420
 16777215
370
    20
  0
POLYLINE
  5
E6
330
1F
100
AcDbEntity
  8
Layer 2
 62
     7
420
 16777215
370
    20
100
AcDb2dPolyline
 66
     1
 10
0.0
 20
0.0
 30
0.0
  0
VERTEX
  5
E7
330
E6
100
AcDbEntity
  8
Layer 2
 62
     7
420
 16777215
370
    20
100
AcDbVertex
100
AcDb2dVertex
 10
205.4399033273662
 20
381.0942578025351
 30
0.0
  0
VERTEX
  5
E8
330
E6
100
AcDbEntity
  8
Layer 2
 62
     7
420
 16777215
370
    20
100
AcDbVertex
100
AcDb2dVertex
 10
343.5573787517289
 20
154.1483391335531
 30
0.0
  0
SEQEND
  5
E9
330
E6
100
AcDbEntity
  8
Layer 2
 62
     7
420
 16777215
370
    20
  0
POLYLINE
  5
EA
330
1F
100
AcDbEntity
  8
Layer 2
 62
     7
420
 16777215
370
    20
100
AcDb2dPolyline
 66
     1
 10
0.0
 20
0.0
 30
0.0
  0
VERTEX
  5
EB
330
EA
100
AcDbEntity
  8
Layer 2
 62
     7
420
 16777215
370
    20
100
AcDbVertex
100
AcDb2dVertex
 10
8.284049982700695
 20
154.1483391486048
 30
0.0
  0
VERTEX
  5
EC
330
EA
100
AcDbEntity
  8
Layer 2
 62
     7
420
 16777215
370
    20
100
AcDbVertex
100
AcDb2dVertex
 10
146.4015254274463
 20
381.0942578051847
 30
0.0
  0
SEQEND
  5
ED
330
EA
100
AcDbEntity
  8
Layer 2
 62
     7
420
 16777215
370
    20
  0
POLYLINE
  5
EE
330
1F
100
AcDbEntity
  8
Layer 2
 62
     7
420
 16777215
370
    20
100
AcDb2dPolyline
 66
     1
 10
0.0
 20
0.0
 30
0.0
  0
VERTEX
  5
EF
330
EE
100
AcDbEntity
  8
Layer 2
 62
     7
420
 16777215
370
    20
100
AcDbVertex
100
AcDb2dVertex
 10
223.3138874297286
 20
460.1732864636554
 30
0.0
  0
VERTEX
  5
F0
330
EE
100
AcDbEntity
  8
Layer 2
 62
     7
420
 16777215
370
    20
100
AcDbVertex
100
AcDb2dVertex
 10
343.5573787690215
 20
539.2523151201821
 30
0.0
  0
SEQEND
  5
F1
330
EE
100
AcDbEntity
  8
Layer 2
 62
     7
420
 16777215
370
    20
  0
POLYLINE
  5
F2
330
1F
100
AcDbEntity
  8
Layer 2
 62
     7
420
 16777215
370
    20
100
AcDb2dPolyline
 66
     1
 10
0.0
 20
0.0
 30
0.0
  0
VERTEX
  5
F3
330
F2
100
AcDbEntity
  8
Layer 2
 62
     7
420
 16777215
370
    20
100
AcDbVertex
100
AcDb2dVertex
 10
8.284049999990636
 20
539.2523151352316
 30
0.0
  0
VERTEX
  5
F4
330
F2
100
AcDbEntity
  8
Layer 2
 62
     7
420
 16777215
370
    20
100
AcDbVertex
100
AcDb2dVertex
 10
129.0691563434461
 20
460.1732864678887
 30
0.0
  0
SEQEND
  5
F5
330
F2
100
AcDbEntity
  8
Layer 2
 62
     7
420
 16777215
370
    20
  0
POLYLINE
  5
F6
330
1F
100
AcDbEntity
  8
Layer 2
 62
     7
420
 16777215
370
    20
100
AcDb2dPolyline
 66
     1
 10
0.0
 20
0.0
 30
0.0
  0
VERTEX
  5
F7
330
F6
100
AcDbEntity
  8
Layer 2
 62
     7
420
 16777215
370
    20
100
AcDbVertex
100
AcDb2dVertex
 10
-52.38903561427694
 20
624.2893155365871
 30
0.0
  0
VERTEX
  5
F8
330
F6
100
AcDbEntity
  8
Layer 2
 62
     7
420
 16777215
370
    20
100
AcDbVertex
100
AcDb2dVertex
 10
-189.5979243991413
 20
624.289315544514
 30
0.0
  0
SEQEND
  5
F9
330
F6
100
AcDbEntity
  8
Layer 2
 62
     7
420
 16777215
370
    20
  0
POLYLINE
  5
FA
330
1F
100
AcDbEntity
  8
Layer 2
 62
     7
420
 16777215
370
    20
100
AcDb2dPolyline
 66
     1
 10
0.0
 20
0.0
 30
0.0
  0
VERTEX
  5
FB
330
FA
100
AcDbEntity
  8
Layer 2
 62
     7
420
 16777215
370
    20
100
AcDbVertex
100
AcDb2dVertex
 10
-52.38903561427694
 20
114.0672098051635
 30
0.0
  0
VERTEX
  5
FC
330
FA
100
AcDbEntity
  8
Layer 2
 62
     7
420
 16777215
370
    20
100
AcDbVertex
100
AcDb2dVertex
 10
-189.597924422047
 20
114.0672098117062
 30
0.0
  0
SEQEND
  5
FD
330
FA
100
AcDbEntity
  8
Layer 2
 62
     7
420
 16777215
370
    20
  0
POLYLINE
  5
FE
330
1F
100
AcDbEntity
  8
Layer 2
 62
     7
420
 16777215
370
    20
100
AcDb2dPolyline
 66
     1
 10
0.0
 20
0.0
 30
0.0
  0
VERTEX
  5
FF
330
FE
100
AcDbEntity
  8
Layer 2
 62
     7
420
 16777215
370
    20
100
AcDbVertex
100
AcDb2dVertex
 10
768.7424496434504
 20
102.9613047836885
 30
0.0
  0
VERTEX
  5
100
330
FE
100
AcDbEntity
  8
Layer 2
 62
     7
420
 16777215
370
    20
100
AcDbVertex
100
AcDb2dVertex
 10
768.7424496386845
 20
20.07177272591716
 30
0.0
  0
SEQEND
  5
101
330
FE
100
AcDbEntity
  8
Layer 2
 62
     7
420
 16777215
370
    20
  0
POLYLINE
  5
102
330
1F
100
AcDbEntity
  8
Layer 2
 62
     7
420
 16777215
370
    20
100
AcDb2dPolyline
 66
     1
 10
0.0
 20
0.0
 30
0.0
  0
VERTEX
  5
103
330
102
100
AcDbEntity
  8
Layer 2
 62
     7
420
 16777215
370
    20
100
AcDbVertex
100
AcDb2dVertex
 10
-31.25549878529728
 20
102.7261195985623
 30
0.0
  0
VERTEX
  5
104
330
102
100
AcDbEntity
  8
Layer 2
 62
     7
420
 16777215
370
    20
100
AcDbVertex
100
AcDb2dVertex
 10
-31.25549879016135
 20
20.07177276183434
 30
0.0
  0
SEQEND
  5
105
330
102
100
AcDbEntity
  8
Layer 2
 62
     7
420
 16777215
370
    20
  0
POLYLINE
  5
106
330
1F
100
AcDbEntity
  8
Layer 2
 62
     7
420
 16777215
370
    20
100
AcDb2dPolyline
 66
     1
 10
0.0
 20
0.0
 30
0.0
  0
VERTEX
  5
107
330
106
100
AcDbEntity
  8
Layer 2
 62
     7
420
 16777215
370
    20
100
AcDbVertex
100
AcDb2dVertex
 10
353.8484772033219
 20
102.9613047836885
 30
0.0
  0
VERTEX
  5
108
330
106
100
AcDbEntity
  8
Layer 2
 62
     7
420
 16777215
370
    20
100
AcDbVertex
100
AcDb2dVertex
 10
353.8484771983122
 20
61.23618376383079
 30
0.0
  0
SEQEND
  5
109
330
106
100
AcDbEntity
  8
Layer 2
 62
     7
420
 16777215
370
    20
  0
POLYLINE
  5
10A
330
1F
100
AcDbEntity
  8
Layer 2
 62
     7
420
 16777215
370
    20
100
AcDb2dPolyline
 66
     1
 10
0.0
 20
0.0
 30
0.0
  0
VERTEX
  5
10B
330
10A
100
AcDbEntity
  8
Layer 2
 62
     7
420
 16777215
370
    20
100
AcDbVertex
100
AcDb2dVertex
 10
-1.465433454998317
 20
102.9613047836885
 30
0.0
  0
VERTEX
  5
10C
330
10A
100
AcDbEntity
  8
Layer 2
 62
     7
420
 16777215
370
    20
100
AcDbVertex
100
AcDb2dVertex
 10
-1.465433460008703
 20
61.23618377978344
 30
0.0
  0
SEQEND
  5
10D
330
10A
100
AcDbEntity
  8
Layer 2
 62
     7
420
 16777215
370
    20
  0
POLYLINE
  5
10E
330
1F
100
AcDbEntity
  8
Layer 2
 62
     7
420
 16777215
370
    20
100
AcDb2dPolyline
 66
     1
 10
0.0
 20
0.0
 30
0.0
  0
VERTEX
  5
10F
330
10E
100
AcDbEntity
  8
Layer 2
 62
     7
420
 16777215
370
    20
100
AcDbVertex
100
AcDb2dVertex
 10
738.9524531897029
 20
102.9613047836885
 30
0.0
  0
VERTEX
  5
110
330
10E
100
AcDbEntity
  8
Layer 2
 62
     7
420
 16777215
370
    20
100
AcDbVertex
100
AcDb2dVertex
 10
738.9524531850852
 20
64.48601155954698
 30
0.0
  0
SEQEND
  5
111
330
10E
100
AcDbEntity
  8
Layer 2
 62
     7
420
 16777215
370
    20
  0
POLYLINE
  5
112
330
1F
100
AcDbEntity
  8
Layer 2
 62
     7
420
 16777215
370
    20
100
AcDb2dPolyline
 66
     1
 10
0.0
 20
0.0
 30
0.0
  0
VERTEX
  5
113
330
112
100
AcDbEntity
  8
Layer 2
 62
     7
420
 16777215
370
    20
100
AcDbVertex
100
AcDb2dVertex
 10
383.6385425316984
 20
102.9613047836885
 30
0.0
  0
VERTEX
  5
114
330
112
100
AcDbEntity
  8
Layer 2
 62
     7
420
 16777215
370
    20
100
AcDbVertex
100
AcDb2dVertex
 10
383.638542526763
 20
64.48601157549962
 30
0.0
  0
SEQEND
  5
115
330
112
100
AcDbEntity
  8
Layer 2
 62
     7
420
 16777215
370
    20
  0
POLYLINE
  5
116
330
1F
100
AcDbEntity
  8
Layer 2
 62
     7
420
 16777215
370
    20
100
AcDb2dPolyline
 66
     1
 10
0.0
 20
0.0
 30
0.0
  0
VERTEX
  5
117
330
116
100
AcDbEntity
  8
Layer 2
 62
     7
420
 16777215
370
    20
100
AcDbVertex
100
AcDb2dVertex
 10
-52.38903561427694
 20
549.5434135824427
 30
0.0
  0
VERTEX
  5
118
330
116
100
AcDbEntity
  8
Layer 2
 62
     7
420
 16777215
370
    20
100
AcDbVertex
100
AcDb2dVertex
 10
-155.4748012386591
 20
549.5434135893005
 30
0.0
  0
SEQEND
  5
119
330
116
100
AcDbEntity
  8
Layer 2
 62
     7
420
 16777215
370
    20
  0
POLYLINE
  5
11A
330
1F
100
AcDbEntity
  8
Layer 2
 62
     7
420
 16777215
370
    20
100
AcDb2dPolyline
 66
     1
 10
0.0
 20
0.0
 30
0.0
  0
VERTEX
  5
11B
330
11A
100
AcDbEntity
  8
Layer 2
 62
     7
420
 16777215
370
    20
100
AcDbVertex
100
AcDb2dVertex
 10
-52.38903561427694
 20
429.3000024871117
 30
0.0
  0
VERTEX
  5
11C
330
11A
100
AcDbEntity
  8
Layer 2
 62
     7
420
 16777215
370
    20
100
AcDbVertex
100
AcDb2dVertex
 10
-120.9355785252724
 20
429.3000024939695
 30
0.0
  0
SEQEND
  5
11D
330
11A
100
AcDbEntity
  8
Layer 2
 62
     7
420
 16777215
370
    20
  0
POLYLINE
  5
11E
330
1F
100
AcDbEntity
  8
Layer 2
 62
     7
420
 16777215
370
    20
100
AcDb2dPolyline
 66
     1
 10
0.0
 20
0.0
 30
0.0
  0
VERTEX
  5
11F
330
11E
100
AcDbEntity
  8
Layer 2
 62
     7
420
 16777215
370
    20
100
AcDbVertex
100
AcDb2dVertex
 10
-52.38903561427694
 20
143.857240694438
 30
0.0
  0
VERTEX
  5
120
330
11E
100
AcDbEntity
  8
Layer 2
 62
     7
420
 16777215
370
    20
100
AcDbVertex
100
AcDb2dVertex
 10
-155.4748012568731
 20
143.8572407021204
 30
0.0
  0
SEQEND
  5
121
330
11E
100
AcDbEntity
  8
Layer 2
 62
     7
420
 16777215
370
    20
  0
POLYLINE
  5
122
330
1F
100
AcDbEntity
  8
Layer 2
 62
     7
420
 16777215
370
    20
100
AcDb2dPolyline
 66
     1
 10
0.0
 20
0.0
 30
0.0
  0
VERTEX
  5
123
330
122
100
AcDbEntity
  8
Layer 2
 62
     7
420
 16777215
370
    20
100
AcDbVertex
100
AcDb2dVertex
 10
768.7424496426496
 20
118.9419514917432
 30
0.0
  0
VERTEX
  5
124
330
122
100
AcDbEntity
  8
Layer 2
 62
     7
420
 16777215
370
    20
100
AcDbVertex
100
AcDb2dVertex
 10
768.7424496651148
 20
619.4145737855378
 30
0.0
  0
SEQEND
  5
125
330
122
100
AcDbEntity
  8
Layer 2
 62
     7
420
 16777215
370
    20
  0
POLYLINE
  5
126
330
1F
100
AcDbEntity
  8
Layer 2
 62
     7
420
 16777215
370
    20
100
AcDb2dPolyline
 66
     1
 10
0.0
 20
0.0
 30
0.0
  0
VERTEX
  5
127
330
126
100
AcDbEntity
  8
Layer 2
 62
     7
420
 16777215
370
    20
100
AcDbVertex
100
AcDb2dVertex
 10
738.9524531888533
 20
159.0230808353078
 30
0.0
  0
VERTEX
  5
128
330
126
100
AcDbEntity
  8
Layer 2
 62
     7
420
 16777215
370
    20
100
AcDbVertex
100
AcDb2dVertex
 10
738.9524532057056
 20
534.3775733829194
 30
0.0
  0
SEQEND
  5
129
330
126
100
AcDbEntity
  8
Layer 2
 62
     7
420
 16777215
370
    20
  0
POLYLINE
  5
12A
330
1F
100
AcDbEntity
  8
Layer 2
 62
     7
420
 16777215
370
    20
100
AcDb2dPolyline
 66
     1
 10
0.0
 20
0.0
 30
0.0
  0
VERTEX
  5
12B
330
12A
100
AcDbEntity
  8
Layer 2
 62
     7
420
 16777215
370
    20
100
AcDbVertex
100
AcDb2dVertex
 10
763.8677079229203
 20
114.0672097724573
 30
0.0
  0
VERTEX
  5
12C
330
12A
100
AcDbEntity
  8
Layer 2
 62
     7
420
 16777215
370
    20
100
AcDbVertex
100
AcDb2dVertex
 10
766.5759207246846
 20
114.6088592199545
 30
0.0
  0
VERTEX
  5
12D
330
12A
100
AcDbEntity
  8
Layer 2
 62
     7
420
 16777215
370
    20
100
AcDbVertex
100
AcDb2dVertex
 10
768.2008346312608
 20
116.2337731263831
 30
0.0
  0
VERTEX
  5
12E
330
12A
100
AcDbEntity
  8
Layer 2
 62
     7
420
 16777215
370
    20
100
AcDbVertex
100
AcDb2dVertex
 10
768.7424496426496
 20
118.9419514917432
 30
0.0
  0
SEQEND
  5
12F
330
12A
100
AcDbEntity
  8
Layer 2
 62
     7
420
 16777215
370
    20
  0
POLYLINE
  5
130
330
1F
100
AcDbEntity
  8
Layer 2
 62
     7
420
 16777215
370
    20
100
AcDb2dPolyline
 66
     1
 10
0.0
 20
0.0
 30
0.0
  0
VERTEX
  5
131
330
130
100
AcDbEntity
  8
Layer 2
 62
     7
420
 16777215
370
    20
100
AcDbVertex
100
AcDb2dVertex
 10
738.9524532057056
 20
534.3775733829194
 30
0.0
  0
VERTEX
  5
132
330
130
100
AcDbEntity
  8
Layer 2
 62
     7
420
 16777215
370
    20
100
AcDbVertex
100
AcDb2dVertex
 10
737.869154310708
 20
539.7939301137416
 30
0.0
  0
VERTEX
  5
133
330
130
100
AcDbEntity
  8
Layer 2
 62
     7
420
 16777215
370
    20
100
AcDbVertex
100
AcDb2dVertex
 10
734.6193264979253
 20
544.6686718333935
 30
0.0
  0
VERTEX
  5
134
330
130
100
AcDbEntity
  8
Layer 2
 62
     7
420
 16777215
370
    20
100
AcDbVertex
100
AcDb2dVertex
 10
729.7445847785624
 20
547.9184996466137
 30
0.0
  0
VERTEX
  5
135
330
130
100
AcDbEntity
  8
Layer 2
 62
     7
420
 16777215
370
    20
100
AcDbVertex
100
AcDb2dVertex
 10
723.7866130366024
 20
549.5434135533843
 30
0.0
  0
SEQEND
  5
136
330
130
100
AcDbEntity
  8
Layer 2
 62
     7
420
 16777215
370
    20
  0
POLYLINE
  5
137
330
1F
100
AcDbEntity
  8
Layer 2
 62
     7
420
 16777215
370
    20
100
AcDb2dPolyline
 66
     1
 10
0.0
 20
0.0
 30
0.0
  0
VERTEX
  5
138
330
137
100
AcDbEntity
  8
Layer 2
 62
     7
420
 16777215
370
    20
100
AcDbVertex
100
AcDb2dVertex
 10
383.6385425305311
 20
159.0230808512604
 30
0.0
  0
VERTEX
  5
139
330
137
100
AcDbEntity
  8
Layer 2
 62
     7
420
 16777215
370
    20
100
AcDbVertex
100
AcDb2dVertex
 10
384.7217725527934
 20
153.0650746728197
 30
0.0
  0
VERTEX
  5
13A
330
137
100
AcDbEntity
  8
Layer 2
 62
     7
420
 16777215
370
    20
100
AcDbVertex
100
AcDb2dVertex
 10
387.9716003655794
 20
148.1903329531694
 30
0.0
  0
VERTEX
  5
13B
330
137
100
AcDbEntity
  8
Layer 2
 62
     7
420
 16777215
370
    20
100
AcDbVertex
100
AcDb2dVertex
 10
392.8464109576524
 20
144.9405051399451
 30
0.0
  0
VERTEX
  5
13C
330
137
100
AcDbEntity
  8
Layer 2
 62
     7
420
 16777215
370
    20
100
AcDbVertex
100
AcDb2dVertex
 10
398.8043138269235
 20
143.8572406807955
 30
0.0
  0
SEQEND
  5
13D
330
137
100
AcDbEntity
  8
Layer 2
 62
     7
420
 16777215
370
    20
  0
POLYLINE
  5
13E
330
1F
100
AcDbEntity
  8
Layer 2
 62
     7
420
 16777215
370
    20
100
AcDb2dPolyline
 66
     1
 10
0.0
 20
0.0
 30
0.0
  0
VERTEX
  5
13F
330
13E
100
AcDbEntity
  8
Layer 2
 62
     7
420
 16777215
370
    20
100
AcDbVertex
100
AcDb2dVertex
 10
723.7866130366024
 20
549.5434135533843
 30
0.0
  0
VERTEX
  5
140
330
13E
100
AcDbEntity
  8
Layer 2
 62
     7
420
 16777215
370
    20
100
AcDbVertex
100
AcDb2dVertex
 10
398.8043138451375
 20
549.5434135679752
 30
0.0
  0
VERTEX
  5
141
330
13E
100
AcDbEntity
  8
Layer 2
 62
     7
420
 16777215
370
    20
100
AcDbVertex
100
AcDb2dVertex
 10
392.8464109757426
 20
547.9184996617407
 30
0.0
  0
VERTEX
  5
142
330
13E
100
AcDbEntity
  8
Layer 2
 62
     7
420
 16777215
370
    20
100
AcDbVertex
100
AcDb2dVertex
 10
387.9716003833807
 20
544.6686718489544
 30
0.0
  0
VERTEX
  5
143
330
13E
100
AcDbEntity
  8
Layer 2
 62
     7
420
 16777215
370
    20
100
AcDbVertex
100
AcDb2dVertex
 10
384.7217725701532
 20
539.7939301295954
 30
0.0
  0
VERTEX
  5
144
330
13E
100
AcDbEntity
  8
Layer 2
 62
     7
420
 16777215
370
    20
100
AcDbVertex
100
AcDb2dVertex
 10
383.6385425473828
 20
534.377573398872
 30
0.0
  0
SEQEND
  5
145
330
13E
100
AcDbEntity
  8
Layer 2
 62
     7
420
 16777215
370
    20
  0
POLYLINE
  5
146
330
1F
100
AcDbEntity
  8
Layer 2
 62
     7
420
 16777215
370
    20
100
AcDb2dPolyline
 66
     1
 10
0.0
 20
0.0
 30
0.0
  0
VERTEX
  5
147
330
146
100
AcDbEntity
  8
Layer 2
 62
     7
420
 16777215
370
    20
100
AcDbVertex
100
AcDb2dVertex
 10
398.8043138269235
 20
143.8572406807955
 30
0.0
  0
VERTEX
  5
148
330
146
100
AcDbEntity
  8
Layer 2
 62
     7
420
 16777215
370
    20
100
AcDbVertex
100
AcDb2dVertex
 10
723.7866130183884
 20
143.8572406662058
 30
0.0
  0
VERTEX
  5
149
330
146
100
AcDbEntity
  8
Layer 2
 62
     7
420
 16777215
370
    20
100
AcDbVertex
100
AcDb2dVertex
 10
729.7445847604723
 20
144.940505124819
 30
0.0
  0
VERTEX
  5
14A
330
146
100
AcDbEntity
  8
Layer 2
 62
     7
420
 16777215
370
    20
100
AcDbVertex
100
AcDb2dVertex
 10
734.6193264801277
 20
148.1903329376069
 30
0.0
  0
VERTEX
  5
14B
330
146
100
AcDbEntity
  8
Layer 2
 62
     7
420
 16777215
370
    20
100
AcDbVertex
100
AcDb2dVertex
 10
737.8691542933476
 20
153.0650746569672
 30
0.0
  0
VERTEX
  5
14C
330
146
100
AcDbEntity
  8
Layer 2
 62
     7
420
 16777215
370
    20
100
AcDbVertex
100
AcDb2dVertex
 10
738.9524531888533
 20
159.0230808353078
 30
0.0
  0
SEQEND
  5
14D
330
146
100
AcDbEntity
  8
Layer 2
 62
     7
420
 16777215
370
    20
  0
POLYLINE
  5
14E
330
1F
100
AcDbEntity
  8
Layer 2
 62
     7
420
 16777215
370
    20
100
AcDb2dPolyline
 66
     1
 10
0.0
 20
0.0
 30
0.0
  0
VERTEX
  5
14F
330
14E
100
AcDbEntity
  8
Layer 2
 62
     7
420
 16777215
370
    20
100
AcDbVertex
100
AcDb2dVertex
 10
608.417863414968
 20
429.2999910955362
 30
0.0
  0
VERTEX
  5
150
330
14E
100
AcDbEntity
  8
Layer 2
 62
     7
420
 16777215
370
    20
100
AcDbVertex
100
AcDb2dVertex
 10
607.8762484041189
 20
438.5077906505964
 30
0.0
  0
VERTEX
  5
151
330
14E
100
AcDbEntity
  8
Layer 2
 62
     7
420
 16777215
370
    20
100
AcDbVertex
100
AcDb2dVertex
 10
605.168035602764
 20
447.1739751944905
 30
0.0
  0
VERTEX
  5
152
330
14E
100
AcDbEntity
  8
Layer 2
 62
     7
420
 16777215
370
    20
100
AcDbVertex
100
AcDb2dVertex
 10
600.834977767599
 20
455.2985447272006
 30
0.0
  0
VERTEX
  5
153
330
14E
100
AcDbEntity
  8
Layer 2
 62
     7
420
 16777215
370
    20
100
AcDbVertex
100
AcDb2dVertex
 10
594.876937153193
 20
462.8814992487156
 30
0.0
  0
VERTEX
  5
154
330
14E
100
AcDbEntity
  8
Layer 2
 62
     7
420
 16777215
370
    20
100
AcDbVertex
100
AcDb2dVertex
 10
587.2940515048994
 20
468.2978559798234
 30
0.0
  0
VERTEX
  5
155
330
14E
100
AcDbEntity
  8
Layer 2
 62
     7
420
 16777215
370
    20
100
AcDbVertex
100
AcDb2dVertex
 10
579.1694819725849
 20
472.6309138157187
 30
0.0
  0
VERTEX
  5
156
330
14E
100
AcDbEntity
  8
Layer 2
 62
     7
420
 16777215
370
    20
100
AcDbVertex
100
AcDb2dVertex
 10
570.5032974289304
 20
475.3391266178497
 30
0.0
  0
VERTEX
  5
157
330
14E
100
AcDbEntity
  8
Layer 2
 62
     7
420
 16777215
370
    20
100
AcDbVertex
100
AcDb2dVertex
 10
561.2954978739443
 20
476.4224255135034
 30
0.0
  0
VERTEX
  5
158
330
14E
100
AcDbEntity
  8
Layer 2
 62
     7
420
 16777215
370
    20
100
AcDbVertex
100
AcDb2dVertex
 10
552.0876294461453
 20
475.3391266186788
 30
0.0
  0
VERTEX
  5
159
330
14E
100
AcDbEntity
  8
Layer 2
 62
     7
420
 16777215
370
    20
100
AcDbVertex
100
AcDb2dVertex
 10
543.4214449022516
 20
472.6309138173272
 30
0.0
  0
VERTEX
  5
15A
330
14E
100
AcDbEntity
  8
Layer 2
 62
     7
420
 16777215
370
    20
100
AcDbVertex
100
AcDb2dVertex
 10
535.2969442422514
 20
468.2978559821589
 30
0.0
  0
VERTEX
  5
15B
330
14E
100
AcDbEntity
  8
Layer 2
 62
     7
420
 16777215
370
    20
100
AcDbVertex
100
AcDb2dVertex
 10
527.7139208480509
 20
462.8814992517284
 30
0.0
  0
VERTEX
  5
15C
330
14E
100
AcDbEntity
  8
Layer 2
 62
     7
420
 16777215
370
    20
100
AcDbVertex
100
AcDb2dVertex
 10
521.7560179783884
 20
455.2985447307495
 30
0.0
  0
VERTEX
  5
15D
330
14E
100
AcDbEntity
  8
Layer 2
 62
     7
420
 16777215
370
    20
100
AcDbVertex
100
AcDb2dVertex
 10
517.4228223970656
 20
447.1739751984347
 30
0.0
  0
VERTEX
  5
15E
330
14E
100
AcDbEntity
  8
Layer 2
 62
     7
420
 16777215
370
    20
100
AcDbVertex
100
AcDb2dVertex
 10
514.7147473403649
 20
438.5077906547806
 30
0.0
  0
VERTEX
  5
15F
330
14E
100
AcDbEntity
  8
Layer 2
 62
     7
420
 16777215
370
    20
100
AcDbVertex
100
AcDb2dVertex
 10
514.1729945832631
 20
429.2999910997659
 30
0.0
  0
VERTEX
  5
160
330
14E
100
AcDbEntity
  8
Layer 2
 62
     7
420
 16777215
370
    20
100
AcDbVertex
100
AcDb2dVertex
 10
514.7147473395358
 20
420.0921226719917
 30
0.0
  0
VERTEX
  5
161
330
14E
100
AcDbEntity
  8
Layer 2
 62
     7
420
 16777215
370
    20
100
AcDbVertex
100
AcDb2dVertex
 10
517.4228223954427
 20
410.8843231168326
 30
0.0
  0
VERTEX
  5
162
330
14E
100
AcDbEntity
  8
Layer 2
 62
     7
420
 16777215
370
    20
100
AcDbVertex
100
AcDb2dVertex
 10
521.7560179760314
 20
402.7597535841261
 30
0.0
  0
VERTEX
  5
163
330
14E
100
AcDbEntity
  8
Layer 2
 62
     7
420
 16777215
370
    20
100
AcDbVertex
100
AcDb2dVertex
 10
527.713920845038
 20
395.7184829465865
 30
0.0
  0
VERTEX
  5
164
330
14E
100
AcDbEntity
  8
Layer 2
 62
     7
420
 16777215
370
    20
100
AcDbVertex
100
AcDb2dVertex
 10
535.296944238731
 20
389.7604423314997
 30
0.0
  0
VERTEX
  5
165
330
14E
100
AcDbEntity
  8
Layer 2
 62
     7
420
 16777215
370
    20
100
AcDbVertex
100
AcDb2dVertex
 10
543.4214448983321
 20
385.4273844956044
 30
0.0
  0
VERTEX
  5
166
330
14E
100
AcDbEntity
  8
Layer 2
 62
     7
420
 16777215
370
    20
100
AcDbVertex
100
AcDb2dVertex
 10
552.0876294419897
 20
382.7191716934731
 30
0.0
  0
VERTEX
  5
167
330
14E
100
AcDbEntity
  8
Layer 2
 62
     7
420
 16777215
370
    20
100
AcDbVertex
100
AcDb2dVertex
 10
561.2954978697111
 20
382.1775566817988
 30
0.0
  0
VERTEX
  5
168
330
14E
100
AcDbEntity
  8
Layer 2
 62
     7
420
 16777215
370
    20
100
AcDbVertex
100
AcDb2dVertex
 10
570.5032974247748
 20
382.7191716926475
 30
0.0
  0
VERTEX
  5
169
330
14E
100
AcDbEntity
  8
Layer 2
 62
     7
420
 16777215
370
    20
100
AcDbVertex
100
AcDb2dVertex
 10
579.1694819686686
 20
385.4273844939992
 30
0.0
  0
VERTEX
  5
16A
330
14E
100
AcDbEntity
  8
Layer 2
 62
     7
420
 16777215
370
    20
100
AcDbVertex
100
AcDb2dVertex
 10
587.2940515013789
 20
389.7604423291643
 30
0.0
  0
VERTEX
  5
16B
330
14E
100
AcDbEntity
  8
Layer 2
 62
     7
420
 16777215
370
    20
100
AcDbVertex
100
AcDb2dVertex
 10
594.8769371501803
 20
395.7184829435702
 30
0.0
  0
VERTEX
  5
16C
330
14E
100
AcDbEntity
  8
Layer 2
 62
     7
420
 16777215
370
    20
100
AcDbVertex
100
AcDb2dVertex
 10
600.834977765242
 20
402.7597535805772
 30
0.0
  0
VERTEX
  5
16D
330
14E
100
AcDbEntity
  8
Layer 2
 62
     7
420
 16777215
370
    20
100
AcDbVertex
100
AcDb2dVertex
 10
605.1680356011374
 20
410.8843231128919
 30
0.0
  0
VERTEX
  5
16E
330
14E
100
AcDbEntity
  8
Layer 2
 62
     7
420
 16777215
370
    20
100
AcDbVertex
100
AcDb2dVertex
 10
607.8762484032899
 20
420.0921226678078
 30
0.0
  0
VERTEX
  5
16F
330
14E
100
AcDbEntity
  8
Layer 2
 62
     7
420
 16777215
370
    20
100
AcDbVertex
100
AcDb2dVertex
 10
608.417863414968
 20
429.2999910955362
 30
0.0
  0
SEQEND
  5
170
330
14E
100
AcDbEntity
  8
Layer 2
 62
     7
420
 16777215
370
    20
  0
POLYLINE
  5
171
330
1F
100
AcDbEntity
  8
Layer 2
 62
     7
420
 16777215
370
    20
100
AcDb2dPolyline
 66
     1
 10
0.0
 20
0.0
 30
0.0
  0
VERTEX
  5
172
330
171
100
AcDbEntity
  8
Layer 2
 62
     7
420
 16777215
370
    20
100
AcDbVertex
100
AcDb2dVertex
 10
617.6257318427208
 20
429.2999910951232
 30
0.0
  0
VERTEX
  5
173
330
171
100
AcDbEntity
  8
Layer 2
 62
     7
420
 16777215
370
    20
100
AcDbVertex
100
AcDb2dVertex
 10
616.5424329479633
 20
440.1327045567074
 30
0.0
  0
VERTEX
  5
174
330
171
100
AcDbEntity
  8
Layer 2
 62
     7
420
 16777215
370
    20
100
AcDbVertex
100
AcDb2dVertex
 10
613.2926051354488
 20
450.9654868911076
 30
0.0
  0
VERTEX
  5
175
330
171
100
AcDbEntity
  8
Layer 2
 62
     7
420
 16777215
370
    20
100
AcDbVertex
100
AcDb2dVertex
 10
608.4178634163791
 20
460.7149014576275
 30
0.0
  0
VERTEX
  5
176
330
171
100
AcDbEntity
  8
Layer 2
 62
     7
420
 16777215
370
    20
100
AcDbVertex
100
AcDb2dVertex
 10
601.3765927794922
 20
469.3810860017189
 30
0.0
  0
VERTEX
  5
177
330
171
100
AcDbEntity
  8
Layer 2
 62
     7
420
 16777215
370
    20
100
AcDbVertex
100
AcDb2dVertex
 10
592.7104082360353
 20
476.4224255120923
 30
0.0
  0
VERTEX
  5
178
330
171
100
AcDbEntity
  8
Layer 2
 62
     7
420
 16777215
370
    20
100
AcDbVertex
100
AcDb2dVertex
 10
582.9609247972428
 20
481.2970983593269
 30
0.0
  0
VERTEX
  5
179
330
171
100
AcDbEntity
  8
Layer 2
 62
     7
420
 16777215
370
    20
100
AcDbVertex
100
AcDb2dVertex
 10
572.1282113358493
 20
484.5469261728153
 30
0.0
  0
VERTEX
  5
17A
330
171
100
AcDbEntity
  8
Layer 2
 62
     7
420
 16777215
370
    20
100
AcDbVertex
100
AcDb2dVertex
 10
561.2954978743569
 20
485.6302250685428
 30
0.0
  0
VERTEX
  5
17B
330
171
100
AcDbEntity
  8
Layer 2
 62
     7
420
 16777215
370
    20
100
AcDbVertex
100
AcDb2dVertex
 10
550.4627155400556
 20
484.5469261737887
 30
0.0
  0
VERTEX
  5
17C
330
171
100
AcDbEntity
  8
Layer 2
 62
     7
420
 16777215
370
    20
100
AcDbVertex
100
AcDb2dVertex
 10
539.6300020783726
 20
481.2970983612706
 30
0.0
  0
VERTEX
  5
17D
330
171
100
AcDbEntity
  8
Layer 2
 62
     7
420
 16777215
370
    20
100
AcDbVertex
100
AcDb2dVertex
 10
529.8805186391354
 20
476.4224255149145
 30
0.0
  0
VERTEX
  5
17E
330
171
100
AcDbEntity
  8
Layer 2
 62
     7
420
 16777215
370
    20
100
AcDbVertex
100
AcDb2dVertex
 10
521.2142652223338
 20
469.3810860053172
 30
0.0
  0
VERTEX
  5
17F
330
171
100
AcDbEntity
  8
Layer 2
 62
     7
420
 16777215
370
    20
100
AcDbVertex
100
AcDb2dVertex
 10
514.1729945846741
 20
460.7149014618608
 30
0.0
  0
VERTEX
  5
180
330
171
100
AcDbEntity
  8
Layer 2
 62
     7
420
 16777215
370
    20
100
AcDbVertex
100
AcDb2dVertex
 10
508.7567067261778
 20
450.9654868957997
 30
0.0
  0
VERTEX
  5
181
330
171
100
AcDbEntity
  8
Layer 2
 62
     7
420
 16777215
370
    20
100
AcDbVertex
100
AcDb2dVertex
 10
506.0484939239476
 20
440.1327045616709
 30
0.0
  0
VERTEX
  5
182
330
171
100
AcDbEntity
  8
Layer 2
 62
     7
420
 16777215
370
    20
100
AcDbVertex
100
AcDb2dVertex
 10
504.9652639009378
 20
429.2999911001785
 30
0.0
  0
VERTEX
  5
183
330
171
100
AcDbEntity
  8
Layer 2
 62
     7
420
 16777215
370
    20
100
AcDbVertex
100
AcDb2dVertex
 10
506.0484939229562
 20
417.9255937546122
 30
0.0
  0
VERTEX
  5
184
330
171
100
AcDbEntity
  8
Layer 2
 62
     7
420
 16777215
370
    20
100
AcDbVertex
100
AcDb2dVertex
 10
508.7567067242302
 20
407.6344953042157
 30
0.0
  0
VERTEX
  5
185
330
171
100
AcDbEntity
  8
Layer 2
 62
     7
420
 16777215
370
    20
100
AcDbVertex
100
AcDb2dVertex
 10
514.172994581852
 20
397.8850118649609
 30
0.0
  0
VERTEX
  5
186
330
171
100
AcDbEntity
  8
Layer 2
 62
     7
420
 16777215
370
    20
100
AcDbVertex
100
AcDb2dVertex
 10
521.214265218739
 20
389.2188273208695
 30
0.0
  0
VERTEX
  5
187
330
171
100
AcDbEntity
  8
Layer 2
 62
     7
420
 16777215
370
    20
100
AcDbVertex
100
AcDb2dVertex
 10
529.8805186349092
 20
382.1775566832063
 30
0.0
  0
VERTEX
  5
188
330
171
100
AcDbEntity
  8
Layer 2
 62
     7
420
 16777215
370
    20
100
AcDbVertex
100
AcDb2dVertex
 10
539.6300020736735
 20
376.7611655156427
 30
0.0
  0
VERTEX
  5
189
330
171
100
AcDbEntity
  8
Layer 2
 62
     7
420
 16777215
370
    20
100
AcDbVertex
100
AcDb2dVertex
 10
550.4627155350709
 20
373.5113721385079
 30
0.0
  0
VERTEX
  5
18A
330
171
100
AcDbEntity
  8
Layer 2
 62
     7
420
 16777215
370
    20
100
AcDbVertex
100
AcDb2dVertex
 10
561.2954978692734
 20
372.428073242784
 30
0.0
  0
VERTEX
  5
18B
330
171
100
AcDbEntity
  8
Layer 2
 62
     7
420
 16777215
370
    20
100
AcDbVertex
100
AcDb2dVertex
 10
572.1282113308646
 20
373.5113721375341
 30
0.0
  0
VERTEX
  5
18C
330
171
100
AcDbEntity
  8
Layer 2
 62
     7
420
 16777215
370
    20
100
AcDbVertex
100
AcDb2dVertex
 10
582.9609247925475
 20
376.761165513699
 30
0.0
  0
VERTEX
  5
18D
330
171
100
AcDbEntity
  8
Layer 2
 62
     7
420
 16777215
370
    20
100
AcDbVertex
100
AcDb2dVertex
 10
592.7104082318059
 20
382.1775566803877
 30
0.0
  0
VERTEX
  5
18E
330
171
100
AcDbEntity
  8
Layer 2
 62
     7
420
 16777215
370
    20
100
AcDbVertex
100
AcDb2dVertex
 10
601.3765927758973
 20
389.2188273172676
 30
0.0
  0
VERTEX
  5
18F
330
171
100
AcDbEntity
  8
Layer 2
 62
     7
420
 16777215
370
    20
100
AcDbVertex
100
AcDb2dVertex
 10
608.4178634135569
 20
397.8850118607276
 30
0.0
  0
VERTEX
  5
190
330
171
100
AcDbEntity
  8
Layer 2
 62
     7
420
 16777215
370
    20
100
AcDbVertex
100
AcDb2dVertex
 10
613.2926051335019
 20
407.6344952995236
 30
0.0
  0
VERTEX
  5
191
330
171
100
AcDbEntity
  8
Layer 2
 62
     7
420
 16777215
370
    20
100
AcDbVertex
100
AcDb2dVertex
 10
616.5424329469726
 20
417.9255937496519
 30
0.0
  0
VERTEX
  5
192
330
171
100
AcDbEntity
  8
Layer 2
 62
     7
420
 16777215
370
    20
100
AcDbVertex
100
AcDb2dVertex
 10
617.6257318427208
 20
429.2999910951232
 30
0.0
  0
SEQEND
  5
193
330
171
100
AcDbEntity
  8
Layer 2
 62
     7
420
 16777215
370
    20
  0
POLYLINE
  5
194
330
1F
100
AcDbEntity
  8
Layer 2
 62
     7
420
 16777215
370
    20
100
AcDb2dPolyline
 66
     1
 10
0.0
 20
0.0
 30
0.0
  0
VERTEX
  5
195
330
194
100
AcDbEntity
  8
Layer 2
 62
     7
420
 16777215
370
    20
100
AcDbVertex
100
AcDb2dVertex
 10
532.0471164253341
 20
381.0942577878703
 30
0.0
  0
VERTEX
  5
196
330
194
100
AcDbEntity
  8
Layer 2
 62
     7
420
 16777215
370
    20
100
AcDbVertex
100
AcDb2dVertex
 10
393.9296409805885
 20
154.1483391312918
 30
0.0
  0
SEQEND
  5
197
330
194
100
AcDbEntity
  8
Layer 2
 62
     7
420
 16777215
370
    20
  0
POLYLINE
  5
198
330
1F
100
AcDbEntity
  8
Layer 2
 62
     7
420
 16777215
370
    20
100
AcDb2dPolyline
 66
     1
 10
0.0
 20
0.0
 30
0.0
  0
VERTEX
  5
199
330
198
100
AcDbEntity
  8
Layer 2
 62
     7
420
 16777215
370
    20
100
AcDbVertex
100
AcDb2dVertex
 10
728.6612858656474
 20
154.1483391162632
 30
0.0
  0
VERTEX
  5
19A
330
198
100
AcDbEntity
  8
Layer 2
 62
     7
420
 16777215
370
    20
100
AcDbVertex
100
AcDb2dVertex
 10
590.5438793139917
 20
381.094257785242
 30
0.0
  0
SEQEND
  5
19B
330
198
100
AcDbEntity
  8
Layer 2
 62
     7
420
 16777215
370
    20
  0
POLYLINE
  5
19C
330
1F
100
AcDbEntity
  8
Layer 2
 62
     7
420
 16777215
370
    20
100
AcDb2dPolyline
 66
     1
 10
0.0
 20
0.0
 30
0.0
  0
VERTEX
  5
19D
330
19C
100
AcDbEntity
  8
Layer 2
 62
     7
420
 16777215
370
    20
100
AcDbVertex
100
AcDb2dVertex
 10
514.1729945846498
 20
460.1732864505955
 30
0.0
  0
VERTEX
  5
19E
330
19C
100
AcDbEntity
  8
Layer 2
 62
     7
420
 16777215
370
    20
100
AcDbVertex
100
AcDb2dVertex
 10
393.9296409978784
 20
539.2523151179172
 30
0.0
  0
SEQEND
  5
19F
330
19C
100
AcDbEntity
  8
Layer 2
 62
     7
420
 16777215
370
    20
  0
POLYLINE
  5
1A0
330
1F
100
AcDbEntity
  8
Layer 2
 62
     7
420
 16777215
370
    20
100
AcDb2dPolyline
 66
     1
 10
0.0
 20
0.0
 30
0.0
  0
VERTEX
  5
1A1
330
1A0
100
AcDbEntity
  8
Layer 2
 62
     7
420
 16777215
370
    20
100
AcDbVertex
100
AcDb2dVertex
 10
728.6612858829335
 20
539.2523151028889
 30
0.0
  0
VERTEX
  5
1A2
330
1A0
100
AcDbEntity
  8
Layer 2
 62
     7
420
 16777215
370
    20
100
AcDbVertex
100
AcDb2dVertex
 10
608.4178634163579
 20
460.1732864463658
 30
0.0
  0
SEQEND
  5
1A3
330
1A0
100
AcDbEntity
  8
Layer 2
 62
     7
420
 16777215
370
    20
  0
POLYLINE
  5
1A4
330
1F
100
AcDbEntity
  8
Layer 2
 62
     7
420
 16777215
370
    20
100
AcDb2dPolyline
 66
     1
 10
0.0
 20
0.0
 30
0.0
  0
VERTEX
  5
1A5
330
1A4
100
AcDbEntity
  8
Layer 2
 62
     7
420
 16777215
370
    20
100
AcDbVertex
100
AcDb2dVertex
 10
386.3467553514861
 20
586.9163645453754
 30
0.0
  0
VERTEX
  5
1A6
330
1A4
100
AcDbEntity
  8
Layer 2
 62
     7
420
 16777215
370
    20
100
AcDbVertex
100
AcDb2dVertex
 10
385.2633875837751
 20
592.3327212761941
 30
0.0
  0
VERTEX
  5
1A7
330
1A4
100
AcDbEntity
  8
Layer 2
 62
     7
420
 16777215
370
    20
100
AcDbVertex
100
AcDb2dVertex
 10
383.0969275389432
 20
597.2074629957966
 30
0.0
  0
VERTEX
  5
1A8
330
1A4
100
AcDbEntity
  8
Layer 2
 62
     7
420
 16777215
370
    20
100
AcDbVertex
100
AcDb2dVertex
 10
378.7637319581569
 20
600.9989058202608
 30
0.0
  0
VERTEX
  5
1A9
330
1A4
100
AcDbEntity
  8
Layer 2
 62
     7
420
 16777215
370
    20
100
AcDbVertex
100
AcDb2dVertex
 10
373.8890591114869
 20
603.7071186222192
 30
0.0
  0
VERTEX
  5
1AA
330
1A4
100
AcDbEntity
  8
Layer 2
 62
     7
420
 16777215
370
    20
100
AcDbVertex
100
AcDb2dVertex
 10
368.4726335080283
 20
604.248733633728
 30
0.0
  0
VERTEX
  5
1AB
330
1A4
100
AcDbEntity
  8
Layer 2
 62
     7
420
 16777215
370
    20
100
AcDbVertex
100
AcDb2dVertex
 10
363.0563456499452
 20
603.7071186227063
 30
0.0
  0
VERTEX
  5
1AC
330
1A4
100
AcDbEntity
  8
Layer 2
 62
     7
420
 16777215
370
    20
100
AcDbVertex
100
AcDb2dVertex
 10
358.1815350576039
 20
600.9989058211852
 30
0.0
  0
VERTEX
  5
1AD
330
1A4
100
AcDbEntity
  8
Layer 2
 62
     7
420
 16777215
370
    20
100
AcDbVertex
100
AcDb2dVertex
 10
354.3900922331647
 20
597.2074629970876
 30
0.0
  0
VERTEX
  5
1AE
330
1A4
100
AcDbEntity
  8
Layer 2
 62
     7
420
 16777215
370
    20
100
AcDbVertex
100
AcDb2dVertex
 10
352.223632187892
 20
592.3327212776758
 30
0.0
  0
VERTEX
  5
1AF
330
1A4
100
AcDbEntity
  8
Layer 2
 62
     7
420
 16777215
370
    20
100
AcDbVertex
100
AcDb2dVertex
 10
351.1402644196991
 20
586.9163645469558
 30
0.0
  0
VERTEX
  5
1B0
330
1A4
100
AcDbEntity
  8
Layer 2
 62
     7
420
 16777215
370
    20
100
AcDbVertex
100
AcDb2dVertex
 10
352.2236321874042
 20
581.5000078161374
 30
0.0
  0
VERTEX
  5
1B1
330
1A4
100
AcDbEntity
  8
Layer 2
 62
     7
420
 16777215
370
    20
100
AcDbVertex
100
AcDb2dVertex
 10
354.39009223224
 20
576.6252660965349
 30
0.0
  0
VERTEX
  5
1B2
330
1A4
100
AcDbEntity
  8
Layer 2
 62
     7
420
 16777215
370
    20
100
AcDbVertex
100
AcDb2dVertex
 10
358.181535056341
 20
572.8338232720952
 30
0.0
  0
VERTEX
  5
1B3
330
1A4
100
AcDbEntity
  8
Layer 2
 62
     7
420
 16777215
370
    20
100
AcDbVertex
100
AcDb2dVertex
 10
363.0563456484352
 20
570.1256104701332
 30
0.0
  0
VERTEX
  5
1B4
330
1A4
100
AcDbEntity
  8
Layer 2
 62
     7
420
 16777215
370
    20
100
AcDbVertex
100
AcDb2dVertex
 10
368.4726335064446
 20
569.0423115746526
 30
0.0
  0
VERTEX
  5
1B5
330
1A4
100
AcDbEntity
  8
Layer 2
 62
     7
420
 16777215
370
    20
100
AcDbVertex
100
AcDb2dVertex
 10
373.8890591099732
 20
570.1256104696465
 30
0.0
  0
VERTEX
  5
1B6
330
1A4
100
AcDbEntity
  8
Layer 2
 62
     7
420
 16777215
370
    20
100
AcDbVertex
100
AcDb2dVertex
 10
378.763731956894
 20
572.8338232711747
 30
0.0
  0
VERTEX
  5
1B7
330
1A4
100
AcDbEntity
  8
Layer 2
 62
     7
420
 16777215
370
    20
100
AcDbVertex
100
AcDb2dVertex
 10
383.0969275380192
 20
576.6252660952435
 30
0.0
  0
VERTEX
  5
1B8
330
1A4
100
AcDbEntity
  8
Layer 2
 62
     7
420
 16777215
370
    20
100
AcDbVertex
100
AcDb2dVertex
 10
385.2633875832881
 20
581.5000078146522
 30
0.0
  0
VERTEX
  5
1B9
330
1A4
100
AcDbEntity
  8
Layer 2
 62
     7
420
 16777215
370
    20
100
AcDbVertex
100
AcDb2dVertex
 10
386.3467553514861
 20
586.9163645453754
 30
0.0
  0
SEQEND
  5
1BA
330
1A4
100
AcDbEntity
  8
Layer 2
 62
     7
420
 16777215
370
    20
  0
POLYLINE
  5
1BB
330
1F
100
AcDbEntity
  8
Layer 2
 62
     7
420
 16777215
370
    20
100
AcDb2dPolyline
 66
     1
 10
0.0
 20
0.0
 30
0.0
  0
VERTEX
  5
1BC
330
1BB
100
AcDbEntity
  8
Layer 2
 62
     7
420
 16777215
370
    20
100
AcDbVertex
100
AcDb2dVertex
 10
768.7424496426496
 20
118.9419514917432
 30
0.0
  0
VERTEX
  5
1BD
330
1BB
100
AcDbEntity
  8
Layer 2
 62
     7
420
 16777215
370
    20
100
AcDbVertex
100
AcDb2dVertex
 10
768.7424496651148
 20
619.4145737855378
 30
0.0
  0
SEQEND
  5
1BE
330
1BB
100
AcDbEntity
  8
Layer 2
 62
     7
420
 16777215
370
    20
  0
POLYLINE
  5
1BF
330
1F
100
AcDbEntity
  8
Layer 2
 62
     7
420
 16777215
370
    20
100
AcDb2dPolyline
 66
     1
 10
0.0
 20
0.0
 30
0.0
  0
VERTEX
  5
1C0
330
1BF
100
AcDbEntity
  8
Layer 2
 62
     7
420
 16777215
370
    20
100
AcDbVertex
100
AcDb2dVertex
 10
21.55420319652743
 20
-287.8275547495005
 30
0.0
  0
VERTEX
  5
1C1
330
1BF
100
AcDbEntity
  8
Layer 2
 62
     7
420
 16777215
370
    20
100
AcDbVertex
100
AcDb2dVertex
 10
346.5364335152776
 20
-287.8275547057264
 30
0.0
  0
SEQEND
  5
1C2
330
1BF
100
AcDbEntity
  8
Layer 2
 62
     7
420
 16777215
370
    20
  0
POLYLINE
  5
1C3
330
1F
100
AcDbEntity
  8
Layer 2
 62
     7
420
 16777215
370
    20
100
AcDb2dPolyline
 66
     1
 10
0.0
 20
0.0
 30
0.0
  0
VERTEX
  5
1C4
330
1C3
100
AcDbEntity
  8
Layer 2
 62
     7
420
 16777215
370
    20
100
AcDbVertex
100
AcDb2dVertex
 10
21.55420319667117
 20
-288.9107847720278
 30
0.0
  0
VERTEX
  5
1C5
330
1C3
100
AcDbEntity
  8
Layer 2
 62
     7
420
 16777215
370
    20
100
AcDbVertex
100
AcDb2dVertex
 10
346.5364335154264
 20
-288.9107847282536
 30
0.0
  0
SEQEND
  5
1C6
330
1C3
100
AcDbEntity
  8
Layer 2
 62
     7
420
 16777215
370
    20
  0
POLYLINE
  5
1C7
330
1F
100
AcDbEntity
  8
Layer 2
 62
     7
420
 16777215
370
    20
100
AcDb2dPolyline
 66
     1
 10
0.0
 20
0.0
 30
0.0
  0
VERTEX
  5
1C8
330
1C7
100
AcDbEntity
  8
Layer 2
 62
     7
420
 16777215
370
    20
100
AcDbVertex
100
AcDb2dVertex
 10
6.388294127183143
 20
-88.5050347538735
 30
0.0
  0
VERTEX
  5
1C9
330
1C7
100
AcDbEntity
  8
Layer 2
 62
     7
420
 16777215
370
    20
100
AcDbVertex
100
AcDb2dVertex
 10
361.7022047855034
 20
-88.50503470601558
 30
0.0
  0
SEQEND
  5
1CA
330
1C7
100
AcDbEntity
  8
Layer 2
 62
     7
420
 16777215
370
    20
  0
POLYLINE
  5
1CB
330
1F
100
AcDbEntity
  8
Layer 2
 62
     7
420
 16777215
370
    20
100
AcDb2dPolyline
 66
     1
 10
0.0
 20
0.0
 30
0.0
  0
VERTEX
  5
1CC
330
1CB
100
AcDbEntity
  8
Layer 2
 62
     7
420
 16777215
370
    20
100
AcDbVertex
100
AcDb2dVertex
 10
-23.40177120090324
 20
-90.13001753710445
 30
0.0
  0
VERTEX
  5
1CD
330
1CB
100
AcDbEntity
  8
Layer 2
 62
     7
420
 16777215
370
    20
100
AcDbVertex
100
AcDb2dVertex
 10
-23.40177120112142
 20
-88.50503475788797
 30
0.0
  0
SEQEND
  5
1CE
330
1CB
100
AcDbEntity
  8
Layer 2
 62
     7
420
 16777215
370
    20
  0
POLYLINE
  5
1CF
330
1F
100
AcDbEntity
  8
Layer 2
 62
     7
420
 16777215
370
    20
100
AcDb2dPolyline
 66
     1
 10
0.0
 20
0.0
 30
0.0
  0
VERTEX
  5
1D0
330
1CF
100
AcDbEntity
  8
Layer 2
 62
     7
420
 16777215
370
    20
100
AcDbVertex
100
AcDb2dVertex
 10
362.7854348082527
 20
-90.13001748508833
 30
0.0
  0
VERTEX
  5
1D1
330
1CF
100
AcDbEntity
  8
Layer 2
 62
     7
420
 16777215
370
    20
100
AcDbVertex
100
AcDb2dVertex
 10
390.4089023460771
 20
-90.13001748136904
 30
0.0
  0
SEQEND
  5
1D2
330
1CF
100
AcDbEntity
  8
Layer 2
 62
     7
420
 16777215
370
    20
  0
POLYLINE
  5
1D3
330
1F
100
AcDbEntity
  8
Layer 2
 62
     7
420
 16777215
370
    20
100
AcDb2dPolyline
 66
     1
 10
0.0
 20
0.0
 30
0.0
  0
VERTEX
  5
1D4
330
1D3
100
AcDbEntity
  8
Layer 2
 62
     7
420
 16777215
370
    20
100
AcDbVertex
100
AcDb2dVertex
 10
-23.40177120090324
 20
-90.13001753710445
 30
0.0
  0
VERTEX
  5
1D5
330
1D3
100
AcDbEntity
  8
Layer 2
 62
     7
420
 16777215
370
    20
100
AcDbVertex
100
AcDb2dVertex
 10
5.305064104876611
 20
-90.13001753323628
 30
0.0
  0
SEQEND
  5
1D6
330
1D3
100
AcDbEntity
  8
Layer 2
 62
     7
420
 16777215
370
    20
  0
POLYLINE
  5
1D7
330
1F
100
AcDbEntity
  8
Layer 2
 62
     7
420
 16777215
370
    20
100
AcDb2dPolyline
 66
     1
 10
0.0
 20
0.0
 30
0.0
  0
VERTEX
  5
1D8
330
1D7
100
AcDbEntity
  8
Layer 2
 62
     7
420
 16777215
370
    20
100
AcDbVertex
100
AcDb2dVertex
 10
-23.40177120112142
 20
-88.50503475788797
 30
0.0
  0
VERTEX
  5
1D9
330
1D7
100
AcDbEntity
  8
Layer 2
 62
     7
420
 16777215
370
    20
100
AcDbVertex
100
AcDb2dVertex
 10
776.5961772277238
 20
-88.50503465013644
 30
0.0
  0
SEQEND
  5
1DA
330
1D7
100
AcDbEntity
  8
Layer 2
 62
     7
420
 16777215
370
    20
  0
POLYLINE
  5
1DB
330
1F
100
AcDbEntity
  8
Layer 2
 62
     7
420
 16777215
370
    20
100
AcDb2dPolyline
 66
     1
 10
0.0
 20
0.0
 30
0.0
  0
VERTEX
  5
1DC
330
1DB
100
AcDbEntity
  8
Layer 2
 62
     7
420
 16777215
370
    20
100
AcDbVertex
100
AcDb2dVertex
 10
6.388294127183143
 20
-88.5050347538735
 30
0.0
  0
VERTEX
  5
1DD
330
1DB
100
AcDbEntity
  8
Layer 2
 62
     7
420
 16777215
370
    20
100
AcDbVertex
100
AcDb2dVertex
 10
6.388294151988662
 20
-272.6617145817564
 30
0.0
  0
VERTEX
  5
1DE
330
1DB
100
AcDbEntity
  8
Layer 2
 62
     7
420
 16777215
370
    20
100
AcDbVertex
100
AcDb2dVertex
 10
7.471524175316779
 20
-278.6196863236465
 30
0.0
  0
VERTEX
  5
1DF
330
1DB
100
AcDbEntity
  8
Layer 2
 62
     7
420
 16777215
370
    20
100
AcDbVertex
100
AcDb2dVertex
 10
10.72135198897743
 20
-283.4944280427142
 30
0.0
  0
VERTEX
  5
1E0
330
1DB
100
AcDbEntity
  8
Layer 2
 62
     7
420
 16777215
370
    20
100
AcDbVertex
100
AcDb2dVertex
 10
15.59616258163381
 20
-286.7442558550607
 30
0.0
  0
VERTEX
  5
1E1
330
1DB
100
AcDbEntity
  8
Layer 2
 62
     7
420
 16777215
370
    20
100
AcDbVertex
100
AcDb2dVertex
 10
21.55420319652743
 20
-287.8275547495005
 30
0.0
  0
SEQEND
  5
1E2
330
1DB
100
AcDbEntity
  8
Layer 2
 62
     7
420
 16777215
370
    20
  0
POLYLINE
  5
1E3
330
1F
100
AcDbEntity
  8
Layer 2
 62
     7
420
 16777215
370
    20
100
AcDb2dPolyline
 66
     1
 10
0.0
 20
0.0
 30
0.0
  0
VERTEX
  5
1E4
330
1E3
100
AcDbEntity
  8
Layer 2
 62
     7
420
 16777215
370
    20
100
AcDbVertex
100
AcDb2dVertex
 10
5.305064129461385
 20
-272.6617145819052
 30
0.0
  0
VERTEX
  5
1E5
330
1E3
100
AcDbEntity
  8
Layer 2
 62
     7
420
 16777215
370
    20
100
AcDbVertex
100
AcDb2dVertex
 10
5.846679141380839
 20
-277.5364563013374
 30
0.0
  0
VERTEX
  5
1E6
330
1E3
100
AcDbEntity
  8
Layer 2
 62
     7
420
 16777215
370
    20
100
AcDbVertex
100
AcDb2dVertex
 10
8.013276932516778
 20
-282.411198020554
 30
0.0
  0
VERTEX
  5
1E7
330
1E3
100
AcDbEntity
  8
Layer 2
 62
     7
420
 16777215
370
    20
100
AcDbVertex
100
AcDb2dVertex
 10
11.8047197572216
 20
-285.6609569603359
 30
0.0
  0
VERTEX
  5
1E8
330
1E3
100
AcDbEntity
  8
Layer 2
 62
     7
420
 16777215
370
    20
100
AcDbVertex
100
AcDb2dVertex
 10
16.13777759311435
 20
-288.3691697614893
 30
0.0
  0
VERTEX
  5
1E9
330
1E3
100
AcDbEntity
  8
Layer 2
 62
     7
420
 16777215
370
    20
100
AcDbVertex
100
AcDb2dVertex
 10
21.55420319667117
 20
-288.9107847720278
 30
0.0
  0
SEQEND
  5
1EA
330
1E3
100
AcDbEntity
  8
Layer 2
 62
     7
420
 16777215
370
    20
  0
POLYLINE
  5
1EB
330
1F
100
AcDbEntity
  8
Layer 2
 62
     7
420
 16777215
370
    20
100
AcDb2dPolyline
 66
     1
 10
0.0
 20
0.0
 30
0.0
  0
VERTEX
  5
1EC
330
1EB
100
AcDbEntity
  8
Layer 2
 62
     7
420
 16777215
370
    20
100
AcDbVertex
100
AcDb2dVertex
 10
361.7022048103108
 20
-272.6617145338985
 30
0.0
  0
VERTEX
  5
1ED
330
1EB
100
AcDbEntity
  8
Layer 2
 62
     7
420
 16777215
370
    20
100
AcDbVertex
100
AcDb2dVertex
 10
361.7022047855034
 20
-88.50503470601558
 30
0.0
  0
SEQEND
  5
1EE
330
1EB
100
AcDbEntity
  8
Layer 2
 62
     7
420
 16777215
370
    20
  0
POLYLINE
  5
1EF
330
1F
100
AcDbEntity
  8
Layer 2
 62
     7
420
 16777215
370
    20
100
AcDb2dPolyline
 66
     1
 10
0.0
 20
0.0
 30
0.0
  0
VERTEX
  5
1F0
330
1EF
100
AcDbEntity
  8
Layer 2
 62
     7
420
 16777215
370
    20
100
AcDbVertex
100
AcDb2dVertex
 10
5.305064129461385
 20
-272.6617145819052
 30
0.0
  0
VERTEX
  5
1F1
330
1EF
100
AcDbEntity
  8
Layer 2
 62
     7
420
 16777215
370
    20
100
AcDbVertex
100
AcDb2dVertex
 10
5.305064104876611
 20
-90.13001753323628
 30
0.0
  0
SEQEND
  5
1F2
330
1EF
100
AcDbEntity
  8
Layer 2
 62
     7
420
 16777215
370
    20
  0
POLYLINE
  5
1F3
330
1F
100
AcDbEntity
  8
Layer 2
 62
     7
420
 16777215
370
    20
100
AcDb2dPolyline
 66
     1
 10
0.0
 20
0.0
 30
0.0
  0
VERTEX
  5
1F4
330
1F3
100
AcDbEntity
  8
Layer 2
 62
     7
420
 16777215
370
    20
100
AcDbVertex
100
AcDb2dVertex
 10
346.5364335152776
 20
-287.8275547057264
 30
0.0
  0
VERTEX
  5
1F5
330
1F3
100
AcDbEntity
  8
Layer 2
 62
     7
420
 16777215
370
    20
100
AcDbVertex
100
AcDb2dVertex
 10
352.4943363844569
 20
-286.7442558096874
 30
0.0
  0
VERTEX
  5
1F6
330
1F3
100
AcDbEntity
  8
Layer 2
 62
     7
420
 16777215
370
    20
100
AcDbVertex
100
AcDb2dVertex
 10
357.3691469762354
 20
-283.4944279960268
 30
0.0
  0
VERTEX
  5
1F7
330
1F3
100
AcDbEntity
  8
Layer 2
 62
     7
420
 16777215
370
    20
100
AcDbVertex
100
AcDb2dVertex
 10
360.6189747885844
 20
-278.6196862760812
 30
0.0
  0
VERTEX
  5
1F8
330
1F3
100
AcDbEntity
  8
Layer 2
 62
     7
420
 16777215
370
    20
100
AcDbVertex
100
AcDb2dVertex
 10
361.7022048103108
 20
-272.6617145338985
 30
0.0
  0
SEQEND
  5
1F9
330
1F3
100
AcDbEntity
  8
Layer 2
 62
     7
420
 16777215
370
    20
  0
POLYLINE
  5
1FA
330
1F
100
AcDbEntity
  8
Layer 2
 62
     7
420
 16777215
370
    20
100
AcDb2dPolyline
 66
     1
 10
0.0
 20
0.0
 30
0.0
  0
VERTEX
  5
1FB
330
1FA
100
AcDbEntity
  8
Layer 2
 62
     7
420
 16777215
370
    20
100
AcDbVertex
100
AcDb2dVertex
 10
346.5364335154264
 20
-288.9107847282536
 30
0.0
  0
VERTEX
  5
1FC
330
1FA
100
AcDbEntity
  8
Layer 2
 62
     7
420
 16777215
370
    20
100
AcDbVertex
100
AcDb2dVertex
 10
351.4111063621477
 20
-288.3691697163342
 30
0.0
  0
VERTEX
  5
1FD
330
1FA
100
AcDbEntity
  8
Layer 2
 62
     7
420
 16777215
370
    20
100
AcDbVertex
100
AcDb2dVertex
 10
356.2857792085777
 20
-285.6609569139359
 30
0.0
  0
VERTEX
  5
1FE
330
1FA
100
AcDbEntity
  8
Layer 2
 62
     7
420
 16777215
370
    20
100
AcDbVertex
100
AcDb2dVertex
 10
359.5356070211411
 20
-282.4111979732094
 30
0.0
  0
VERTEX
  5
1FF
330
1FA
100
AcDbEntity
  8
Layer 2
 62
     7
420
 16777215
370
    20
100
AcDbVertex
100
AcDb2dVertex
 10
361.7022048109666
 20
-277.5364562534051
 30
0.0
  0
VERTEX
  5
200
330
1FA
100
AcDbEntity
  8
Layer 2
 62
     7
420
 16777215
370
    20
100
AcDbVertex
100
AcDb2dVertex
 10
362.7854348328343
 20
-272.6617145337547
 30
0.0
  0
VERTEX
  5
201
330
1FA
100
AcDbEntity
  8
Layer 2
 62
     7
420
 16777215
370
    20
100
AcDbVertex
100
AcDb2dVertex
 10
362.7854348082527
 20
-90.13001748508833
 30
0.0
  0
SEQEND
  5
202
330
1FA
100
AcDbEntity
  8
Layer 2
 62
     7
420
 16777215
370
    20
  0
POLYLINE
  5
203
330
1F
100
AcDbEntity
  8
Layer 2
 62
     7
420
 16777215
370
    20
100
AcDb2dPolyline
 66
     1
 10
0.0
 20
0.0
 30
0.0
  0
VERTEX
  5
204
330
203
100
AcDbEntity
  8
Layer 2
 62
     7
420
 16777215
370
    20
100
AcDbVertex
100
AcDb2dVertex
 10
123.9235726881773
 20
-288.910784758239
 30
0.0
  0
VERTEX
  5
205
330
203
100
AcDbEntity
  8
Layer 2
 62
     7
420
 16777215
370
    20
100
AcDbVertex
100
AcDb2dVertex
 10
126.6317854904293
 20
-292.7022964548538
 30
0.0
  0
VERTEX
  5
206
330
203
100
AcDbEntity
  8
Layer 2
 62
     7
420
 16777215
370
    20
100
AcDbVertex
100
AcDb2dVertex
 10
139.6309589975351
 20
-296.4937392773717
 30
0.0
  0
SEQEND
  5
207
330
203
100
AcDbEntity
  8
Layer 2
 62
     7
420
 16777215
370
    20
  0
POLYLINE
  5
208
330
1F
100
AcDbEntity
  8
Layer 2
 62
     7
420
 16777215
370
    20
100
AcDb2dPolyline
 66
     1
 10
0.0
 20
0.0
 30
0.0
  0
VERTEX
  5
209
330
208
100
AcDbEntity
  8
Layer 2
 62
     7
420
 16777215
370
    20
100
AcDbVertex
100
AcDb2dVertex
 10
139.6309589975351
 20
-296.4937392773717
 30
0.0
  0
VERTEX
  5
20A
330
208
100
AcDbEntity
  8
Layer 2
 62
     7
420
 16777215
370
    20
100
AcDbVertex
100
AcDb2dVertex
 10
228.4595399711839
 20
-296.4937392654053
 30
0.0
  0
SEQEND
  5
20B
330
208
100
AcDbEntity
  8
Layer 2
 62
     7
420
 16777215
370
    20
  0
POLYLINE
  5
20C
330
1F
100
AcDbEntity
  8
Layer 2
 62
     7
420
 16777215
370
    20
100
AcDb2dPolyline
 66
     1
 10
0.0
 20
0.0
 30
0.0
  0
VERTEX
  5
20D
330
20C
100
AcDbEntity
  8
Layer 2
 62
     7
420
 16777215
370
    20
100
AcDbVertex
100
AcDb2dVertex
 10
126.6317854904293
 20
-292.7022964548538
 30
0.0
  0
VERTEX
  5
20E
330
20C
100
AcDbEntity
  8
Layer 2
 62
     7
420
 16777215
370
    20
100
AcDbVertex
100
AcDb2dVertex
 10
240.3754834547383
 20
-292.7022964395326
 30
0.0
  0
SEQEND
  5
20F
330
20C
100
AcDbEntity
  8
Layer 2
 62
     7
420
 16777215
370
    20
  0
POLYLINE
  5
210
330
1F
100
AcDbEntity
  8
Layer 2
 62
     7
420
 16777215
370
    20
100
AcDb2dPolyline
 66
     1
 10
0.0
 20
0.0
 30
0.0
  0
VERTEX
  5
211
330
210
100
AcDbEntity
  8
Layer 2
 62
     7
420
 16777215
370
    20
100
AcDbVertex
100
AcDb2dVertex
 10
243.0836962559687
 20
-288.9107847421863
 30
0.0
  0
VERTEX
  5
212
330
210
100
AcDbEntity
  8
Layer 2
 62
     7
420
 16777215
370
    20
100
AcDbVertex
100
AcDb2dVertex
 10
240.3754834547383
 20
-292.7022964395326
 30
0.0
  0
VERTEX
  5
213
330
210
100
AcDbEntity
  8
Layer 2
 62
     7
420
 16777215
370
    20
100
AcDbVertex
100
AcDb2dVertex
 10
228.4595399711839
 20
-296.4937392654053
 30
0.0
  0
SEQEND
  5
214
330
210
100
AcDbEntity
  8
Layer 2
 62
     7
420
 16777215
370
    20
  0
POLYLINE
  5
215
330
1F
100
AcDbEntity
  8
Layer 2
 62
     7
420
 16777215
370
    20
100
AcDb2dPolyline
 66
     1
 10
0.0
 20
0.0
 30
0.0
  0
VERTEX
  5
216
330
215
100
AcDbEntity
  8
Layer 2
 62
     7
420
 16777215
370
    20
100
AcDbVertex
100
AcDb2dVertex
 10
123.9235726881773
 20
-288.910784758239
 30
0.0
  0
VERTEX
  5
217
330
215
100
AcDbEntity
  8
Layer 2
 62
     7
420
 16777215
370
    20
100
AcDbVertex
100
AcDb2dVertex
 10
243.0836962559687
 20
-288.9107847421863
 30
0.0
  0
SEQEND
  5
218
330
215
100
AcDbEntity
  8
Layer 2
 62
     7
420
 16777215
370
    20
  0
POLYLINE
  5
219
330
1F
100
AcDbEntity
  8
Layer 2
 62
     7
420
 16777215
370
    20
100
AcDb2dPolyline
 66
     1
 10
0.0
 20
0.0
 30
0.0
  0
VERTEX
  5
21A
330
219
100
AcDbEntity
  8
Layer 2
 62
     7
420
 16777215
370
    20
100
AcDbVertex
100
AcDb2dVertex
 10
-52.38903561427694
 20
-88.50503474687127
 30
0.0
  0
VERTEX
  5
21B
330
219
100
AcDbEntity
  8
Layer 2
 62
     7
420
 16777215
370
    20
100
AcDbVertex
100
AcDb2dVertex
 10
-163.1634726183849
 20
-88.50503476481832
 30
0.0
  0
SEQEND
  5
21C
330
219
100
AcDbEntity
  8
Layer 2
 62
     7
420
 16777215
370
    20
  0
POLYLINE
  5
21D
330
1F
100
AcDbEntity
  8
Layer 2
 62
     7
420
 16777215
370
    20
100
AcDb2dPolyline
 66
     1
 10
0.0
 20
0.0
 30
0.0
  0
VERTEX
  5
21E
330
21D
100
AcDbEntity
  8
Layer 2
 62
     7
420
 16777215
370
    20
100
AcDbVertex
100
AcDb2dVertex
 10
-52.38903561427694
 20
-288.9107847692505
 30
0.0
  0
VERTEX
  5
21F
330
21D
100
AcDbEntity
  8
Layer 2
 62
     7
420
 16777215
370
    20
100
AcDbVertex
100
AcDb2dVertex
 10
-163.1634725913906
 20
-288.9107847850107
 30
0.0
  0
SEQEND
  5
220
330
21D
100
AcDbEntity
  8
Layer 2
 62
     7
420
 16777215
370
    20
  0
POLYLINE
  5
221
330
1F
100
AcDbEntity
  8
Layer 2
 62
     7
420
 16777215
370
    20
100
AcDb2dPolyline
 66
     1
 10
0.0
 20
0.0
 30
0.0
  0
VERTEX
  5
222
330
221
100
AcDbEntity
  8
Layer 2
 62
     7
420
 16777215
370
    20
100
AcDbVertex
100
AcDb2dVertex
 10
746.806180796935
 20
-272.6617144820312
 30
0.0
  0
VERTEX
  5
223
330
221
100
AcDbEntity
  8
Layer 2
 62
     7
420
 16777215
370
    20
100
AcDbVertex
100
AcDb2dVertex
 10
746.8061807721314
 20
-88.50503465414833
 30
0.0
  0
SEQEND
  5
224
330
221
100
AcDbEntity
  8
Layer 2
 62
     7
420
 16777215
370
    20
  0
POLYLINE
  5
225
330
1F
100
AcDbEntity
  8
Layer 2
 62
     7
420
 16777215
370
    20
100
AcDb2dPolyline
 66
     1
 10
0.0
 20
0.0
 30
0.0
  0
VERTEX
  5
226
330
225
100
AcDbEntity
  8
Layer 2
 62
     7
420
 16777215
370
    20
100
AcDbVertex
100
AcDb2dVertex
 10
731.640340629194
 20
-287.8275546538591
 30
0.0
  0
VERTEX
  5
227
330
225
100
AcDbEntity
  8
Layer 2
 62
     7
420
 16777215
370
    20
100
AcDbVertex
100
AcDb2dVertex
 10
406.658041437726
 20
-287.8275546976282
 30
0.0
  0
SEQEND
  5
228
330
225
100
AcDbEntity
  8
Layer 2
 62
     7
420
 16777215
370
    20
  0
POLYLINE
  5
229
330
1F
100
AcDbEntity
  8
Layer 2
 62
     7
420
 16777215
370
    20
100
AcDb2dPolyline
 66
     1
 10
0.0
 20
0.0
 30
0.0
  0
VERTEX
  5
22A
330
229
100
AcDbEntity
  8
Layer 2
 62
     7
420
 16777215
370
    20
100
AcDbVertex
100
AcDb2dVertex
 10
731.6403406293384
 20
-288.9107846763864
 30
0.0
  0
VERTEX
  5
22B
330
229
100
AcDbEntity
  8
Layer 2
 62
     7
420
 16777215
370
    20
100
AcDbVertex
100
AcDb2dVertex
 10
406.6580414378736
 20
-288.9107847201554
 30
0.0
  0
SEQEND
  5
22C
330
229
100
AcDbEntity
  8
Layer 2
 62
     7
420
 16777215
370
    20
  0
POLYLINE
  5
22D
330
1F
100
AcDbEntity
  8
Layer 2
 62
     7
420
 16777215
370
    20
100
AcDb2dPolyline
 66
     1
 10
0.0
 20
0.0
 30
0.0
  0
VERTEX
  5
22E
330
22D
100
AcDbEntity
  8
Layer 2
 62
     7
420
 16777215
370
    20
100
AcDbVertex
100
AcDb2dVertex
 10
731.640340629194
 20
-287.8275546538591
 30
0.0
  0
VERTEX
  5
22F
330
22D
100
AcDbEntity
  8
Layer 2
 62
     7
420
 16777215
370
    20
100
AcDbVertex
100
AcDb2dVertex
 10
737.5983123710804
 20
-286.744255757815
 30
0.0
  0
VERTEX
  5
230
330
22D
100
AcDbEntity
  8
Layer 2
 62
     7
420
 16777215
370
    20
100
AcDbVertex
100
AcDb2dVertex
 10
742.4730540901468
 20
-283.4944279441544
 30
0.0
  0
VERTEX
  5
231
330
22D
100
AcDbEntity
  8
Layer 2
 62
     7
420
 16777215
370
    20
100
AcDbVertex
100
AcDb2dVertex
 10
745.722881902499
 20
-278.6196862242114
 30
0.0
  0
VERTEX
  5
232
330
22D
100
AcDbEntity
  8
Layer 2
 62
     7
420
 16777215
370
    20
100
AcDbVertex
100
AcDb2dVertex
 10
746.806180796935
 20
-272.6617144820312
 30
0.0
  0
SEQEND
  5
233
330
22D
100
AcDbEntity
  8
Layer 2
 62
     7
420
 16777215
370
    20
  0
POLYLINE
  5
234
330
1F
100
AcDbEntity
  8
Layer 2
 62
     7
420
 16777215
370
    20
100
AcDb2dPolyline
 66
     1
 10
0.0
 20
0.0
 30
0.0
  0
VERTEX
  5
235
330
234
100
AcDbEntity
  8
Layer 2
 62
     7
420
 16777215
370
    20
100
AcDbVertex
100
AcDb2dVertex
 10
731.6403406293384
 20
-288.9107846763864
 30
0.0
  0
VERTEX
  5
236
330
234
100
AcDbEntity
  8
Layer 2
 62
     7
420
 16777215
370
    20
100
AcDbVertex
100
AcDb2dVertex
 10
736.5150134760617
 20
-288.3691696644644
 30
0.0
  0
VERTEX
  5
237
330
234
100
AcDbEntity
  8
Layer 2
 62
     7
420
 16777215
370
    20
100
AcDbVertex
100
AcDb2dVertex
 10
741.3897551951986
 20
-285.6609568620661
 30
0.0
  0
VERTEX
  5
238
330
234
100
AcDbEntity
  8
Layer 2
 62
     7
420
 16777215
370
    20
100
AcDbVertex
100
AcDb2dVertex
 10
744.6395830077697
 20
-282.4111979213371
 30
0.0
  0
VERTEX
  5
239
330
234
100
AcDbEntity
  8
Layer 2
 62
     7
420
 16777215
370
    20
100
AcDbVertex
100
AcDb2dVertex
 10
747.3477958088532
 20
-277.5364562014634
 30
0.0
  0
VERTEX
  5
23A
330
234
100
AcDbEntity
  8
Layer 2
 62
     7
420
 16777215
370
    20
100
AcDbVertex
100
AcDb2dVertex
 10
747.8894108194622
 20
-272.6617144818875
 30
0.0
  0
VERTEX
  5
23B
330
234
100
AcDbEntity
  8
Layer 2
 62
     7
420
 16777215
370
    20
100
AcDbVertex
100
AcDb2dVertex
 10
747.8894107948776
 20
-90.13001743321851
 30
0.0
  0
SEQEND
  5
23C
330
234
100
AcDbEntity
  8
Layer 2
 62
     7
420
 16777215
370
    20
  0
POLYLINE
  5
23D
330
1F
100
AcDbEntity
  8
Layer 2
 62
     7
420
 16777215
370
    20
100
AcDb2dPolyline
 66
     1
 10
0.0
 20
0.0
 30
0.0
  0
VERTEX
  5
23E
330
23D
100
AcDbEntity
  8
Layer 2
 62
     7
420
 16777215
370
    20
100
AcDbVertex
100
AcDb2dVertex
 10
391.4922701138061
 20
-88.50503470200626
 30
0.0
  0
VERTEX
  5
23F
330
23D
100
AcDbEntity
  8
Layer 2
 62
     7
420
 16777215
370
    20
100
AcDbVertex
100
AcDb2dVertex
 10
391.4922701386128
 20
-272.6617145298891
 30
0.0
  0
VERTEX
  5
240
330
23D
100
AcDbEntity
  8
Layer 2
 62
     7
420
 16777215
370
    20
100
AcDbVertex
100
AcDb2dVertex
 10
392.575500161941
 20
-278.6196862717793
 30
0.0
  0
VERTEX
  5
241
330
23D
100
AcDbEntity
  8
Layer 2
 62
     7
420
 16777215
370
    20
100
AcDbVertex
100
AcDb2dVertex
 10
395.8253279756022
 20
-283.494427990847
 30
0.0
  0
VERTEX
  5
242
330
23D
100
AcDbEntity
  8
Layer 2
 62
     7
420
 16777215
370
    20
100
AcDbVertex
100
AcDb2dVertex
 10
400.7001385682606
 20
-286.7442558031934
 30
0.0
  0
VERTEX
  5
243
330
23D
100
AcDbEntity
  8
Layer 2
 62
     7
420
 16777215
370
    20
100
AcDbVertex
100
AcDb2dVertex
 10
406.658041437726
 20
-287.8275546976282
 30
0.0
  0
SEQEND
  5
244
330
23D
100
AcDbEntity
  8
Layer 2
 62
     7
420
 16777215
370
    20
  0
POLYLINE
  5
245
330
1F
100
AcDbEntity
  8
Layer 2
 62
     7
420
 16777215
370
    20
100
AcDb2dPolyline
 66
     1
 10
0.0
 20
0.0
 30
0.0
  0
VERTEX
  5
246
330
245
100
AcDbEntity
  8
Layer 2
 62
     7
420
 16777215
370
    20
100
AcDbVertex
100
AcDb2dVertex
 10
390.4089023706619
 20
-272.6617145300355
 30
0.0
  0
VERTEX
  5
247
330
245
100
AcDbEntity
  8
Layer 2
 62
     7
420
 16777215
370
    20
100
AcDbVertex
100
AcDb2dVertex
 10
390.9506551280076
 20
-277.5364562494702
 30
0.0
  0
VERTEX
  5
248
330
245
100
AcDbEntity
  8
Layer 2
 62
     7
420
 16777215
370
    20
100
AcDbVertex
100
AcDb2dVertex
 10
393.6587301849829
 20
-282.4111979686098
 30
0.0
  0
VERTEX
  5
249
330
245
100
AcDbEntity
  8
Layer 2
 62
     7
420
 16777215
370
    20
100
AcDbVertex
100
AcDb2dVertex
 10
396.9085579984254
 20
-285.6609569084635
 30
0.0
  0
VERTEX
  5
24A
330
245
100
AcDbEntity
  8
Layer 2
 62
     7
420
 16777215
370
    20
100
AcDbVertex
100
AcDb2dVertex
 10
401.783368591006
 20
-288.3691697095476
 30
0.0
  0
VERTEX
  5
24B
330
245
100
AcDbEntity
  8
Layer 2
 62
     7
420
 16777215
370
    20
100
AcDbVertex
100
AcDb2dVertex
 10
406.6580414378736
 20
-288.9107847201554
 30
0.0
  0
SEQEND
  5
24C
330
245
100
AcDbEntity
  8
Layer 2
 62
     7
420
 16777215
370
    20
  0
POLYLINE
  5
24D
330
1F
100
AcDbEntity
  8
Layer 2
 62
     7
420
 16777215
370
    20
100
AcDb2dPolyline
 66
     1
 10
0.0
 20
0.0
 30
0.0
  0
VERTEX
  5
24E
330
24D
100
AcDbEntity
  8
Layer 2
 62
     7
420
 16777215
370
    20
100
AcDbVertex
100
AcDb2dVertex
 10
390.4089023706619
 20
-272.6617145300355
 30
0.0
  0
VERTEX
  5
24F
330
24D
100
AcDbEntity
  8
Layer 2
 62
     7
420
 16777215
370
    20
100
AcDbVertex
100
AcDb2dVertex
 10
390.4089023460771
 20
-90.13001748136904
 30
0.0
  0
SEQEND
  5
250
330
24D
100
AcDbEntity
  8
Layer 2
 62
     7
420
 16777215
370
    20
  0
POLYLINE
  5
251
330
1F
100
AcDbEntity
  8
Layer 2
 62
     7
420
 16777215
370
    20
100
AcDb2dPolyline
 66
     1
 10
0.0
 20
0.0
 30
0.0
  0
VERTEX
  5
252
330
251
100
AcDbEntity
  8
Layer 2
 62
     7
420
 16777215
370
    20
100
AcDbVertex
100
AcDb2dVertex
 10
629.2709022651214
 20
-288.9107846901753
 30
0.0
  0
VERTEX
  5
253
330
251
100
AcDbEntity
  8
Layer 2
 62
     7
420
 16777215
370
    20
100
AcDbVertex
100
AcDb2dVertex
 10
626.5626894638898
 20
-292.7022963875165
 30
0.0
  0
VERTEX
  5
254
330
251
100
AcDbEntity
  8
Layer 2
 62
     7
420
 16777215
370
    20
100
AcDbVertex
100
AcDb2dVertex
 10
613.5634470850953
 20
-296.4937392135381
 30
0.0
  0
SEQEND
  5
255
330
251
100
AcDbEntity
  8
Layer 2
 62
     7
420
 16777215
370
    20
  0
POLYLINE
  5
256
330
1F
100
AcDbEntity
  8
Layer 2
 62
     7
420
 16777215
370
    20
100
AcDb2dPolyline
 66
     1
 10
0.0
 20
0.0
 30
0.0
  0
VERTEX
  5
257
330
256
100
AcDbEntity
  8
Layer 2
 62
     7
420
 16777215
370
    20
100
AcDbVertex
100
AcDb2dVertex
 10
613.5634470850953
 20
-296.4937392135381
 30
0.0
  0
VERTEX
  5
258
330
256
100
AcDbEntity
  8
Layer 2
 62
     7
420
 16777215
370
    20
100
AcDbVertex
100
AcDb2dVertex
 10
524.73493498416
 20
-296.4937392254994
 30
0.0
  0
SEQEND
  5
259
330
256
100
AcDbEntity
  8
Layer 2
 62
     7
420
 16777215
370
    20
  0
POLYLINE
  5
25A
330
1F
100
AcDbEntity
  8
Layer 2
 62
     7
420
 16777215
370
    20
100
AcDb2dPolyline
 66
     1
 10
0.0
 20
0.0
 30
0.0
  0
VERTEX
  5
25B
330
25A
100
AcDbEntity
  8
Layer 2
 62
     7
420
 16777215
370
    20
100
AcDbVertex
100
AcDb2dVertex
 10
626.5626894638898
 20
-292.7022963875165
 30
0.0
  0
VERTEX
  5
25C
330
25A
100
AcDbEntity
  8
Layer 2
 62
     7
420
 16777215
370
    20
100
AcDbVertex
100
AcDb2dVertex
 10
512.8189914995795
 20
-292.7022964028377
 30
0.0
  0
SEQEND
  5
25D
330
25A
100
AcDbEntity
  8
Layer 2
 62
     7
420
 16777215
370
    20
  0
POLYLINE
  5
25E
330
1F
100
AcDbEntity
  8
Layer 2
 62
     7
420
 16777215
370
    20
100
AcDb2dPolyline
 66
     1
 10
0.0
 20
0.0
 30
0.0
  0
VERTEX
  5
25F
330
25E
100
AcDbEntity
  8
Layer 2
 62
     7
420
 16777215
370
    20
100
AcDbVertex
100
AcDb2dVertex
 10
510.110778697332
 20
-288.9107847062203
 30
0.0
  0
VERTEX
  5
260
330
25E
100
AcDbEntity
  8
Layer 2
 62
     7
420
 16777215
370
    20
100
AcDbVertex
100
AcDb2dVertex
 10
512.8189914995795
 20
-292.7022964028377
 30
0.0
  0
VERTEX
  5
261
330
25E
100
AcDbEntity
  8
Layer 2
 62
     7
420
 16777215
370
    20
100
AcDbVertex
100
AcDb2dVertex
 10
524.73493498416
 20
-296.4937392254994
 30
0.0
  0
SEQEND
  5
262
330
25E
100
AcDbEntity
  8
Layer 2
 62
     7
420
 16777215
370
    20
  0
POLYLINE
  5
263
330
1F
100
AcDbEntity
  8
Layer 2
 62
     7
420
 16777215
370
    20
100
AcDb2dPolyline
 66
     1
 10
0.0
 20
0.0
 30
0.0
  0
VERTEX
  5
264
330
263
100
AcDbEntity
  8
Layer 2
 62
     7
420
 16777215
370
    20
100
AcDbVertex
100
AcDb2dVertex
 10
629.2709022651214
 20
-288.9107846901753
 30
0.0
  0
VERTEX
  5
265
330
263
100
AcDbEntity
  8
Layer 2
 62
     7
420
 16777215
370
    20
100
AcDbVertex
100
AcDb2dVertex
 10
510.110778697332
 20
-288.9107847062203
 30
0.0
  0
SEQEND
  5
266
330
263
100
AcDbEntity
  8
Layer 2
 62
     7
420
 16777215
370
    20
  0
POLYLINE
  5
267
330
1F
100
AcDbEntity
  8
Layer 2
 62
     7
420
 16777215
370
    20
100
AcDb2dPolyline
 66
     1
 10
0.0
 20
0.0
 30
0.0
  0
VERTEX
  5
268
330
267
100
AcDbEntity
  8
Layer 2
 62
     7
420
 16777215
370
    20
100
AcDbVertex
100
AcDb2dVertex
 10
746.8061807721314
 20
-88.50503465414833
 30
0.0
  0
VERTEX
  5
269
330
267
100
AcDbEntity
  8
Layer 2
 62
     7
420
 16777215
370
    20
100
AcDbVertex
100
AcDb2dVertex
 10
776.5961772277238
 20
-88.50503465013644
 30
0.0
  0
VERTEX
  5
26A
330
267
100
AcDbEntity
  8
Layer 2
 62
     7
420
 16777215
370
    20
100
AcDbVertex
100
AcDb2dVertex
 10
776.5961772279427
 20
-90.13001742935292
 30
0.0
  0
VERTEX
  5
26B
330
267
100
AcDbEntity
  8
Layer 2
 62
     7
420
 16777215
370
    20
100
AcDbVertex
100
AcDb2dVertex
 10
747.8894107948776
 20
-90.13001743321851
 30
0.0
  0
SEQEND
  5
26C
330
267
100
AcDbEntity
  8
Layer 2
 62
     7
420
 16777215
370
    20
  0
POLYLINE
  5
26D
330
1F
100
AcDbEntity
  8
Layer 2
 62
     7
420
 16777215
370
    20
100
AcDb2dPolyline
 66
     1
 10
0.0
 20
0.0
 30
0.0
  0
VERTEX
  5
26E
330
26D
100
AcDbEntity
  8
Layer 2
 62
     7
420
 16777215
370
    20
100
AcDbVertex
100
AcDb2dVertex
 10
362.7854348329786
 20
-273.744944556282
 30
0.0
  0
VERTEX
  5
26F
330
26D
100
AcDbEntity
  8
Layer 2
 62
     7
420
 16777215
370
    20
100
AcDbVertex
100
AcDb2dVertex
 10
390.4089023708069
 20
-273.7449445525627
 30
0.0
  0
VERTEX
  5
270
330
26D
100
AcDbEntity
  8
Layer 2
 62
     7
420
 16777215
370
    20
100
AcDbVertex
100
AcDb2dVertex
 10
390.4089023678185
 20
-251.537833745506
 30
0.0
  0
VERTEX
  5
271
330
26D
100
AcDbEntity
  8
Layer 2
 62
     7
420
 16777215
370
    20
100
AcDbVertex
100
AcDb2dVertex
 10
362.7854348299903
 20
-251.5378337492253
 30
0.0
  0
VERTEX
  5
272
330
26D
100
AcDbEntity
  8
Layer 2
 62
     7
420
 16777215
370
    20
100
AcDbVertex
100
AcDb2dVertex
 10
362.7854348329786
 20
-273.744944556282
 30
0.0
  0
SEQEND
  5
273
330
26D
100
AcDbEntity
  8
Layer 2
 62
     7
420
 16777215
370
    20
  0
POLYLINE
  5
274
330
1F
100
AcDbEntity
  8
Layer 2
 62
     7
420
 16777215
370
    20
100
AcDb2dPolyline
 66
     1
 10
0.0
 20
0.0
 30
0.0
  0
VERTEX
  5
275
330
274
100
AcDbEntity
  8
Layer 2
 62
     7
420
 16777215
370
    20
100
AcDbVertex
100
AcDb2dVertex
 10
751.6808536192923
 20
-91.21324745523243
 30
0.0
  0
VERTEX
  5
276
330
274
100
AcDbEntity
  8
Layer 2
 62
     7
420
 16777215
370
    20
100
AcDbVertex
100
AcDb2dVertex
 10
761.9719520695685
 20
-91.21324745384892
 30
0.0
  0
VERTEX
  5
277
330
274
100
AcDbEntity
  8
Layer 2
 62
     7
420
 16777215
370
    20
100
AcDbVertex
100
AcDb2dVertex
 10
761.9719520721225
 20
-110.170599320613
 30
0.0
  0
SEQEND
  5
278
330
274
100
AcDbEntity
  8
Layer 2
 62
     7
420
 16777215
370
    20
  0
POLYLINE
  5
279
330
1F
100
AcDbEntity
  8
Layer 2
 62
     7
420
 16777215
370
    20
100
AcDb2dPolyline
 66
     1
 10
0.0
 20
0.0
 30
0.0
  0
VERTEX
  5
27A
330
279
100
AcDbEntity
  8
Layer 2
 62
     7
420
 16777215
370
    20
100
AcDbVertex
100
AcDb2dVertex
 10
763.0552509646577
 20
-90.13001743117535
 30
0.0
  0
VERTEX
  5
27B
330
279
100
AcDbEntity
  8
Layer 2
 62
     7
420
 16777215
370
    20
100
AcDbVertex
100
AcDb2dVertex
 10
763.0552509673638
 20
-110.1705993204667
 30
0.0
  0
VERTEX
  5
27C
330
279
100
AcDbEntity
  8
Layer 2
 62
     7
420
 16777215
370
    20
100
AcDbVertex
100
AcDb2dVertex
 10
761.9719520721225
 20
-110.170599320613
 30
0.0
  0
SEQEND
  5
27D
330
279
100
AcDbEntity
  8
Layer 2
 62
     7
420
 16777215
370
    20
  0
POLYLINE
  5
27E
330
1F
100
AcDbEntity
  8
Layer 2
 62
     7
420
 16777215
370
    20
100
AcDb2dPolyline
 66
     1
 10
0.0
 20
0.0
 30
0.0
  0
VERTEX
  5
27F
330
27E
100
AcDbEntity
  8
Layer 2
 62
     7
420
 16777215
370
    20
100
AcDbVertex
100
AcDb2dVertex
 10
0.9718685240652418
 20
-91.21324755634623
 30
0.0
  0
VERTEX
  5
280
330
27E
100
AcDbEntity
  8
Layer 2
 62
     7
420
 16777215
370
    20
100
AcDbVertex
100
AcDb2dVertex
 10
-8.777477169523687
 20
-91.21324755766042
 30
0.0
  0
VERTEX
  5
281
330
27E
100
AcDbEntity
  8
Layer 2
 62
     7
420
 16777215
370
    20
100
AcDbVertex
100
AcDb2dVertex
 10
-8.777477166969724
 20
-110.1705994244245
 30
0.0
  0
SEQEND
  5
282
330
27E
100
AcDbEntity
  8
Layer 2
 62
     7
420
 16777215
370
    20
  0
POLYLINE
  5
283
330
1F
100
AcDbEntity
  8
Layer 2
 62
     7
420
 16777215
370
    20
100
AcDb2dPolyline
 66
     1
 10
0.0
 20
0.0
 30
0.0
  0
VERTEX
  5
284
330
283
100
AcDbEntity
  8
Layer 2
 62
     7
420
 16777215
370
    20
100
AcDbVertex
100
AcDb2dVertex
 10
-9.860844937621556
 20
-90.13001753528202
 30
0.0
  0
VERTEX
  5
285
330
283
100
AcDbEntity
  8
Layer 2
 62
     7
420
 16777215
370
    20
100
AcDbVertex
100
AcDb2dVertex
 10
-9.860844934921285
 20
-110.1705994245708
 30
0.0
  0
VERTEX
  5
286
330
283
100
AcDbEntity
  8
Layer 2
 62
     7
420
 16777215
370
    20
100
AcDbVertex
100
AcDb2dVertex
 10
-8.777477166969724
 20
-110.1705994244245
 30
0.0
  0
SEQEND
  5
287
330
283
100
AcDbEntity
  8
Layer 2
 62
     7
420
 16777215
370
    20
  0
POLYLINE
  5
288
330
1F
100
AcDbEntity
  8
Layer 2
 62
     7
420
 16777215
370
    20
100
AcDb2dPolyline
 66
     1
 10
0.0
 20
0.0
 30
0.0
  0
VERTEX
  5
289
330
288
100
AcDbEntity
  8
Layer 2
 62
     7
420
 16777215
370
    20
100
AcDbVertex
100
AcDb2dVertex
 10
-8.777477163394177
 20
-136.7107680670121
 30
0.0
  0
VERTEX
  5
28A
330
288
100
AcDbEntity
  8
Layer 2
 62
     7
420
 16777215
370
    20
100
AcDbVertex
100
AcDb2dVertex
 10
5.305064111149861
 20
-136.7107680651152
 30
0.0
  0
SEQEND
  5
28B
330
288
100
AcDbEntity
  8
Layer 2
 62
     7
420
 16777215
370
    20
  0
POLYLINE
  5
28C
330
1F
100
AcDbEntity
  8
Layer 2
 62
     7
420
 16777215
370
    20
100
AcDb2dPolyline
 66
     1
 10
0.0
 20
0.0
 30
0.0
  0
VERTEX
  5
28D
330
28C
100
AcDbEntity
  8
Layer 2
 62
     7
420
 16777215
370
    20
100
AcDbVertex
100
AcDb2dVertex
 10
17.76262260647998
 20
-136.7107680634365
 30
0.0
  0
VERTEX
  5
28E
330
28C
100
AcDbEntity
  8
Layer 2
 62
     7
420
 16777215
370
    20
100
AcDbVertex
100
AcDb2dVertex
 10
58.38540139632503
 20
-136.7107680579641
 30
0.0
  0
SEQEND
  5
28F
330
28C
100
AcDbEntity
  8
Layer 2
 62
     7
420
 16777215
370
    20
  0
POLYLINE
  5
290
330
1F
100
AcDbEntity
  8
Layer 2
 62
     7
420
 16777215
370
    20
100
AcDb2dPolyline
 66
     1
 10
0.0
 20
0.0
 30
0.0
  0
VERTEX
  5
291
330
290
100
AcDbEntity
  8
Layer 2
 62
     7
420
 16777215
370
    20
100
AcDbVertex
100
AcDb2dVertex
 10
-21.23517340414858
 20
-136.7107680686908
 30
0.0
  0
VERTEX
  5
292
330
290
100
AcDbEntity
  8
Layer 2
 62
     7
420
 16777215
370
    20
100
AcDbVertex
100
AcDb2dVertex
 10
-33.69286964490299
 20
-136.7107680703643
 30
0.0
  0
SEQEND
  5
293
330
290
100
AcDbEntity
  8
Layer 2
 62
     7
420
 16777215
370
    20
  0
POLYLINE
  5
294
330
1F
100
AcDbEntity
  8
Layer 2
 62
     7
420
 16777215
370
    20
100
AcDb2dPolyline
 66
     1
 10
0.0
 20
0.0
 30
0.0
  0
VERTEX
  5
295
330
294
100
AcDbEntity
  8
Layer 2
 62
     7
420
 16777215
370
    20
100
AcDbVertex
100
AcDb2dVertex
 10
5.305064107574314
 20
-110.1705994225276
 30
0.0
  0
VERTEX
  5
296
330
294
100
AcDbEntity
  8
Layer 2
 62
     7
420
 16777215
370
    20
100
AcDbVertex
100
AcDb2dVertex
 10
5.305064111953268
 20
-142.66880867986
 30
0.0
  0
SEQEND
  5
297
330
294
100
AcDbEntity
  8
Layer 2
 62
     7
420
 16777215
370
    20
  0
POLYLINE
  5
298
330
1F
100
AcDbEntity
  8
Layer 2
 62
     7
420
 16777215
370
    20
100
AcDb2dPolyline
 66
     1
 10
0.0
 20
0.0
 30
0.0
  0
VERTEX
  5
299
330
298
100
AcDbEntity
  8
Layer 2
 62
     7
420
 16777215
370
    20
100
AcDbVertex
100
AcDb2dVertex
 10
-8.77747716726234
 20
-108.0040016339457
 30
0.0
  0
VERTEX
  5
29A
330
298
100
AcDbEntity
  8
Layer 2
 62
     7
420
 16777215
370
    20
100
AcDbVertex
100
AcDb2dVertex
 10
-8.77747716259077
 20
-142.6688086817568
 30
0.0
  0
SEQEND
  5
29B
330
298
100
AcDbEntity
  8
Layer 2
 62
     7
420
 16777215
370
    20
  0
POLYLINE
  5
29C
330
1F
100
AcDbEntity
  8
Layer 2
370
     0
100
AcDb2dPolyline
 66
     1
 10
0.0
 20
0.0
 30
0.0
  0
VERTEX
  5
29D
330
29C
100
AcDbEntity
  8
Layer 2
370
     0
100
AcDbVertex
100
AcDb2dVertex
 10
-21.23517340444376
 20
-134.5442391509254
 30
0.0
  0
VERTEX
  5
29E
330
29C
100
AcDbEntity
  8
Layer 2
370
     0
100
AcDbVertex
100
AcDb2dVertex
 10
-21.23517340393297
 20
-138.3356819751912
 30
0.0
  0
VERTEX
  5
29F
330
29C
100
AcDbEntity
  8
Layer 2
370
     0
100
AcDbVertex
100
AcDb2dVertex
 10
-8.777477163394177
 20
-136.7107680670121
 30
0.0
  0
VERTEX
  5
2A0
330
29C
100
AcDbEntity
  8
Layer 2
370
     0
100
AcDbVertex
100
AcDb2dVertex
 10
-21.23517340444376
 20
-134.5442391509254
 30
0.0
  0
SEQEND
  5
2A2
330
29C
100
AcDbEntity
  8
Layer 2
370
     0
  0
HATCH
  5
2A1
330
1F
100
AcDbEntity
  8
Layer 2
 62
     7
420
 16777215
100
AcDbHatch
 10
0.0
 20
0.0
 30
0.0
210
0.0
220
0.0
230
1.0
  2
SOLID
 70
     1
 71
     0
 91
        1
 92
        1
 93
        3
 72
     1
 10
-21.23517340444376
 20
-134.5442391509254
 11
-21.23517340393297
 21
-138.3356819751912
 72
     1
 10
-21.23517340393297
 20
-138.3356819751912
 11
-8.777477163394177
 21
-136.7107680670121
 72
     1
 10
-8.777477163394177
 20
-136.7107680670121
 11
-21.23517340444376
 21
-134.5442391509254
 97
        0
 75
     0
 76
     1
 98
        0
  0
POLYLINE
  5
2A3
330
1F
100
AcDbEntity
  8
Layer 2
370
     0
100
AcDb2dPolyline
 66
     1
 10
0.0
 20
0.0
 30
0.0
  0
VERTEX
  5
2A4
330
2A3
100
AcDbEntity
  8
Layer 2
370
     0
100
AcDbVertex
100
AcDb2dVertex
 10
17.76262260618737
 20
-134.5442391456711
 30
0.0
  0
VERTEX
  5
2A5
330
2A3
100
AcDbEntity
  8
Layer 2
370
     0
100
AcDbVertex
100
AcDb2dVertex
 10
17.76262260669816
 20
-138.335681969937
 30
0.0
  0
VERTEX
  5
2A6
330
2A3
100
AcDbEntity
  8
Layer 2
370
     0
100
AcDbVertex
100
AcDb2dVertex
 10
5.305064111149861
 20
-136.7107680651152
 30
0.0
  0
VERTEX
  5
2A7
330
2A3
100
AcDbEntity
  8
Layer 2
370
     0
100
AcDbVertex
100
AcDb2dVertex
 10
17.76262260618737
 20
-134.5442391456711
 30
0.0
  0
SEQEND
  5
2A9
330
2A3
100
AcDbEntity
  8
Layer 2
370
     0
  0
HATCH
  5
2A8
330
1F
100
AcDbEntity
  8
Layer 2
 62
     7
420
 16777215
100
AcDbHatch
 10
0.0
 20
0.0
 30
0.0
210
0.0
220
0.0
230
1.0
  2
SOLID
 70
     1
 71
     0
 91
        1
 92
        1
 93
        3
 72
     1
 10
17.76262260618737
 20
-134.5442391456711
 11
17.76262260669816
 21
-138.335681969937
 72
     1
 10
17.76262260669816
 20
-138.335681969937
 11
5.305064111149861
 21
-136.7107680651152
 72
     1
 10
5.305064111149861
 20
-136.7107680651152
 11
17.76262260618737
 21
-134.5442391456711
 97
        0
 75
     0
 76
     1
 98
        0
  0
INSERT
  5
2AB
330
1F
100
AcDbEntity
  8
Layer 2
100
AcDbBlockReference
  2
block 2
 10
0.0
 20
0.0
 30
0.0
  0
INSERT
  5
2BE
330
1F
100
AcDbEntity
  8
Layer 2
100
AcDbBlockReference
  2
block 4
 10
0.0
 20
0.0
 30
0.0
  0
INSERT
  5
2D1
330
1F
100
AcDbEntity
  8
Layer 2
100
AcDbBlockReference
  2
block 6
 10
0.0
 20
0.0
 30
0.0
  0
INSERT
  5
2E4
330
1F
100
AcDbEntity
  8
Layer 2
100
AcDbBlockReference
  2
block 8
 10
0.0
 20
0.0
 30
0.0
  0
INSERT
  5
2F7
330
1F
100
AcDbEntity
  8
Layer 2
100
AcDbBlockReference
  2
block 10
 10
0.0
 20
0.0
 30
0.0
  0
INSERT
  5
30A
330
1F
100
AcDbEntity
  8
Layer 2
100
AcDbBlockReference
  2
block 12
 10
0.0
 20
0.0
 30
0.0
  0
INSERT
  5
31D
330
1F
100
AcDbEntity
  8
Layer 2
100
AcDbBlockReference
  2
block 14
 10
0.0
 20
0.0
 30
0.0
  0
INSERT
  5
331
330
1F
100
AcDbEntity
  8
Layer 2
100
AcDbBlockReference
  2
block 16
 10
0.0
 20
0.0
 30
0.0
  0
INSERT
  5
344
330
1F
100
AcDbEntity
  8
Layer 2
100
AcDbBlockReference
  2
block 18
 10
0.0
 20
0.0
 30
0.0
  0
INSERT
  5
357
330
1F
100
AcDbEntity
  8
Layer 2
100
AcDbBlockReference
  2
block 20
 10
0.0
 20
0.0
 30
0.0
  0
INSERT
  5
36A
330
1F
100
AcDbEntity
  8
Layer 2
100
AcDbBlockReference
  2
block 22
 10
0.0
 20
0.0
 30
0.0
  0
INSERT
  5
37D
330
1F
100
AcDbEntity
  8
Layer 2
100
AcDbBlockReference
  2
block 24
 10
0.0
 20
0.0
 30
0.0
  0
INSERT
  5
390
330
1F
100
AcDbEntity
  8
Layer 2
100
AcDbBlockReference
  2
block 26
 10
0.0
 20
0.0
 30
0.0
  0
INSERT
  5
3A3
330
1F
100
AcDbEntity
  8
Layer 2
100
AcDbBlockReference
  2
block 28
 10
0.0
 20
0.0
 30
0.0
  0
INSERT
  5
3B6
330
1F
100
AcDbEntity
  8
Layer 2
100
AcDbBlockReference
  2
block 30
 10
0.0
 20
0.0
 30
0.0
  0
INSERT
  5
3C9
330
1F
100
AcDbEntity
  8
Layer 2
100
AcDbBlockReference
  2
block 32
 10
0.0
 20
0.0
 30
0.0
  0
INSERT
  5
3CE
330
1F
100
AcDbEntity
  8
Layer 2
100
AcDbBlockReference
  2
block 33
 10
0.0
 20
0.0
 30
0.0
  0
INSERT
  5
3D3
330
1F
100
AcDbEntity
  8
Layer 2
100
AcDbBlockReference
  2
block 34
 10
0.0
 20
0.0
 30
0.0
  0
INSERT
  5
3D9
330
1F
100
AcDbEntity
  8
Layer 2
100
AcDbBlockReference
  2
block 35
 10
0.0
 20
0.0
 30
0.0
  0
INSERT
  5
3DE
330
1F
100
AcDbEntity
  8
Layer 2
100
AcDbBlockReference
  2
block 36
 10
0.0
 20
0.0
 30
0.0
  0
INSERT
  5
3E3
330
1F
100
AcDbEntity
  8
Layer 2
100
AcDbBlockReference
  2
block 37
 10
0.0
 20
0.0
 30
0.0
  0
INSERT
  5
3E8
330
1F
100
AcDbEntity
  8
Layer 2
100
AcDbBlockReference
  2
block 38
 10
0.0
 20
0.0
 30
0.0
  0
INSERT
  5
3ED
330
1F
100
AcDbEntity
  8
Layer 2
100
AcDbBlockReference
  2
block 39
 10
0.0
 20
0.0
 30
0.0
  0
INSERT
  5
3F2
330
1F
100
AcDbEntity
  8
Layer 2
100
AcDbBlockReference
  2
block 40
 10
0.0
 20
0.0
 30
0.0
  0
INSERT
  5
3F7
330
1F
100
AcDbEntity
  8
Layer 2
100
AcDbBlockReference
  2
block 41
 10
0.0
 20
0.0
 30
0.0
  0
INSERT
  5
3FC
330
1F
100
AcDbEntity
  8
Layer 2
100
AcDbBlockReference
  2
block 42
 10
0.0
 20
0.0
 30
0.0
  0
INSERT
  5
408
330
1F
100
AcDbEntity
  8
Layer 2
100
AcDbBlockReference
  2
block 43
 10
0.0
 20
0.0
 30
0.0
  0
INSERT
  5
40D
330
1F
100
AcDbEntity
  8
Layer 2
100
AcDbBlockReference
  2
block 44
 10
0.0
 20
0.0
 30
0.0
  0
INSERT
  5
412
330
1F
100
AcDbEntity
  8
Layer 2
100
AcDbBlockReference
  2
block 45
 10
0.0
 20
0.0
 30
0.0
  0
INSERT
  5
417
330
1F
100
AcDbEntity
  8
Layer 2
100
AcDbBlockReference
  2
block 46
 10
0.0
 20
0.0
 30
0.0
  0
INSERT
  5
41C
330
1F
100
AcDbEntity
  8
Layer 2
100
AcDbBlockReference
  2
block 47
 10
0.0
 20
0.0
 30
0.0
  0
ENDSEC
  0
SECTION
  2
OBJECTS
  0
DICTIONARY
  5
C
330
0
100
AcDbDictionary
281
     1
  3
ACAD_GROUP
350
D
  3
ACAD_LAYOUT
350
1A
  3
ACAD_MATERIAL
350
3B
  3
ACAD_MLEADERSTYLE
350
425
  3
ACAD_MLINESTYLE
350
17
  3
ACAD_PLOTSETTINGS
350
19
  3
ACAD_PLOTSTYLENAME
350
E
  3
ACAD_TABLESTYLE
350
424
  3
ACAD_VISUALSTYLE
350
2A
  0
SUN
  5
3F
330
29
100
AcDbSun
 90
        1
290
     0
 63
     7
421
 16777215
 40
1.0
291
     1
 91
  2455826
 92
 54000000
292
     0
 70
     2
 71
   256
280
     1
  0
DICTIONARY
  5
D
102
{ACAD_REACTORS
330
C
102
}
330
C
100
AcDbDictionary
281
     1
  0
DICTIONARY
  5
1A
102
{ACAD_REACTORS
330
C
102
}
330
C
100
AcDbDictionary
281
     1
  3
Layout1
350
1E
  3
Layout2
350
26
  3
Model
350
22
  0
DICTIONARY
  5
3B
102
{ACAD_REACTORS
330
C
102
}
330
C
100
AcDbDictionary
281
     1
  3
ByBlock
350
3D
  3
ByLayer
350
3C
  3
Global
350
3E
  0
DICTIONARY
  5
425
102
{ACAD_REACTORS
330
C
102
}
330
C
100
AcDbDictionary
281
     1
  0
DICTIONARY
  5
17
102
{ACAD_REACTORS
330
C
102
}
330
C
100
AcDbDictionary
281
     1
  3
Standard
350
18
  0
DICTIONARY
  5
19
102
{ACAD_REACTORS
330
C
102
}
330
C
100
AcDbDictionary
281
     1
  0
ACDBDICTIONARYWDFLT
  5
E
102
{ACAD_REACTORS
330
C
102
}
330
C
100
AcDbDictionary
281
     1
  3
Normal
350
F
100
AcDbDictionaryWithDefault
340
F
  0
DICTIONARY
  5
424
102
{ACAD_REACTORS
330
C
102
}
330
C
100
AcDbDictionary
281
     1
  0
DICTIONARY
  5
2A
102
{ACAD_REACTORS
330
C
102
}
330
C
100
AcDbDictionary
281
     1
  3
2dWireframe
350
2F
  3
3D Hidden
350
31
  3
3dWireframe
350
30
  3
Basic
350
32
  3
Brighten
350
36
  3
ColorChange
350
3A
  3
Conceptual
350
34
  3
Dim
350
35
  3
Facepattern
350
39
  3
Flat
350
2B
  3
FlatWithEdges
350
2C
  3
Gouraud
350
2D
  3
GouraudWithEdges
350
2E
  3
Linepattern
350
38
  3
Realistic
350
33
  3
Thicken
350
37
  0
LAYOUT
  5
1E
102
{ACAD_REACTORS
330
1A
102
}
330
1A
100
AcDbPlotSettings
  1

  2
none_device
  4

  6

 40
0.0
 41
0.0
 42
0.0
 43
0.0
 44
0.0
 45
0.0
 46
0.0
 47
0.0
 48
0.0
 49
0.0
140
0.0
141
0.0
142
1.0
143
1.0
 70
   688
 72
     0
 73
     0
 74
     5
  7

 75
    16
 76
     0
 77
     2
 78
   300
147
1.0
148
0.0
149
0.0
100
AcDbLayout
  1
Layout1
 70
     1
 71
     1
 10
0.0
 20
0.0
 11
12.0
 21
9.0
 12
0.0
 22
0.0
 32
0.0
 14
1.000000000000000E+20
 24
1.000000000000000E+20
 34
1.000000000000000E+20
 15
-1.000000000000000E+20
 25
-1.000000000000000E+20
 35
-1.000000000000000E+20
146
0.0
 13
0.0
 23
0.0
 33
0.0
 16
1.0
 26
0.0
 36
0.0
 17
0.0
 27
1.0
 37
0.0
 76
     0
330
1B
  0
LAYOUT
  5
26
102
{ACAD_REACTORS
330
1A
102
}
330
1A
100
AcDbPlotSettings
  1

  2
none_device
  4

  6

 40
0.0
 41
0.0
 42
0.0
 43
0.0
 44
0.0
 45
0.0
 46
0.0
 47
0.0
 48
0.0
 49
0.0
140
0.0
141
0.0
142
1.0
143
1.0
 70
   688
 72
     0
 73
     0
 74
     5
  7

 75
    16
 76
     0
 77
     2
 78
   300
147
1.0
148
0.0
149
0.0
100
AcDbLayout
  1
Layout2
 70
     1
 71
     2
 10
0.0
 20
0.0
 11
0.0
 21
0.0
 12
0.0
 22
0.0
 32
0.0
 14
0.0
 24
0.0
 34
0.0
 15
0.0
 25
0.0
 35
0.0
146
0.0
 13
0.0
 23
0.0
 33
0.0
 16
1.0
 26
0.0
 36
0.0
 17
0.0
 27
1.0
 37
0.0
 76
     0
330
23
  0
LAYOUT
  5
22
102
{ACAD_REACTORS
330
1A
102
}
330
1A
100
AcDbPlotSettings
  1

  2
none_device
  4

  6

 40
0.0
 41
0.0
 42
0.0
 43
0.0
 44
0.0
 45
0.0
 46
0.0
 47
0.0
 48
0.0
 49
0.0
140
0.0
141
0.0
142
1.0
143
1.0
 70
  1712
 72
     0
 73
     0
 74
     0
  7

 75
     0
 76
     0
 77
     2
 78
   300
147
1.0
148
0.0
149
0.0
100
AcDbLayout
  1
Model
 70
     1
 71
     0
 10
0.0
 20
0.0
 11
12.0
 21
9.0
 12
0.0
 22
0.0
 32
0.0
 14
1.000000000000000E+20
 24
1.000000000000000E+20
 34
1.000000000000000E+20
 15
-1.000000000000000E+20
 25
-1.000000000000000E+20
 35
-1.000000000000000E+20
146
0.0
 13
0.0
 23
0.0
 33
0.0
 16
1.0
 26
0.0
 36
0.0
 17
0.0
 27
1.0
 37
0.0
 76
     0
330
1F
331
29
  0
MATERIAL
  5
3D
102
{ACAD_REACTORS
330
3B
102
}
330
3B
100
AcDbMaterial
  1
ByBlock
 72
     1
 94
      127
  0
MATERIAL
  5
3C
102
{ACAD_REACTORS
330
3B
102
}
330
3B
100
AcDbMaterial
  1
ByLayer
 72
     1
 94
      127
  0
MATERIAL
  5
3E
102
{ACAD_REACTORS
330
3B
102
}
330
3B
100
AcDbMaterial
  1
Global
 72
     1
 94
      127
  0
MLINESTYLE
  5
18
102
{ACAD_REACTORS
330
17
102
}
330
17
100
AcDbMlineStyle
  2
Standard
 70
     0
  3

 62
   256
 51
90.0
 52
90.0
 71
     2
 49
0.5
 62
   256
  6
BYLAYER
 49
-0.5
 62
   256
  6
BYLAYER
  0
ACDBPLACEHOLDER
  5
F
102
{ACAD_REACTORS
330
E
102
}
330
E
  0
VISUALSTYLE
  5
2F
102
{ACAD_REACTORS
330
2A
102
}
330
2A
100
AcDbVisualStyle
  2
2dWireframe
 70
     4
177
     2
291
     0
 71
     0
176
     1
 72
     2
176
     1
 73
     0
176
     1
 90
        0
176
     1
 40
-0.6
176
     1
 41
-30.0
176
     1
 62
     5
 63
     7
421
 16777215
176
     1
 74
     1
176
     1
 91
        4
176
     1
 64
     7
176
     1
 65
   257
176
     1
 75
     1
176
     1
175
     1
176
     1
 42
1.0
176
     1
 92
        0
176
     1
 66
   257
176
     1
 43
1.0
176
     1
 76
     1
176
     1
 77
     6
176
     1
 78
     2
176
     1
 67
     7
176
     1
 79
     5
176
     1
170
     0
176
     1
171
     0
176
     1
290
     0
176
     1
 93
        1
176
     1
 44
0.0
176
     1
173
     0
176
     1
  0
VISUALSTYLE
  5
31
102
{ACAD_REACTORS
330
2A
102
}
330
2A
100
AcDbVisualStyle
  2
3D Hidden
 70
     6
177
     2
291
     0
 71
     1
176
     1
 72
     2
176
     1
 73
     2
176
     1
 90
        0
176
     1
 40
-0.6
176
     1
 41
-30.0
176
     1
 62
     5
 63
     7
421
 16777215
176
     1
 74
     2
176
     1
 91
        2
176
     1
 64
     7
176
     1
 65
   257
176
     1
 75
     2
176
     1
175
     1
176
     1
 42
40.0
176
     1
 92
        0
176
     1
 66
   257
176
     1
 43
1.0
176
     1
 76
     1
176
     1
 77
     6
176
     1
 78
     2
176
     1
 67
     7
176
     1
 79
     3
176
     1
170
     0
176
     1
171
     0
176
     1
290
     0
176
     1
 93
        1
176
     1
 44
0.0
176
     1
173
     0
176
     1
  0
VISUALSTYLE
  5
30
102
{ACAD_REACTORS
330
2A
102
}
330
2A
100
AcDbVisualStyle
  2
3dWireframe
 70
     5
177
     2
291
     0
 71
     0
176
     1
 72
     2
176
     1
 73
     0
176
     1
 90
        0
176
     1
 40
-0.6
176
     1
 41
-30.0
176
     1
 62
     5
 63
     7
421
 16777215
176
     1
 74
     1
176
     1
 91
        4
176
     1
 64
     7
176
     1
 65
   257
176
     1
 75
     1
176
     1
175
     1
176
     1
 42
1.0
176
     1
 92
        0
176
     1
 66
   257
176
     1
 43
1.0
176
     1
 76
     1
176
     1
 77
     6
176
     1
 78
     2
176
     1
 67
     7
176
     1
 79
     5
176
     1
170
     0
176
     1
171
     0
176
     1
290
     0
176
     1
 93
        1
176
     1
 44
0.0
176
     1
173
     0
176
     1
  0
VISUALSTYLE
  5
32
102
{ACAD_REACTORS
330
2A
102
}
330
2A
100
AcDbVisualStyle
  2
Basic
 70
     7
177
     2
291
     1
 71
     1
176
     1
 72
     0
176
     1
 73
     1
176
     1
 90
        0
176
     1
 40
-0.6
176
     1
 41
-30.0
176
     1
 62
     5
 63
     7
421
 16777215
176
     1
 74
     0
176
     1
 91
        4
176
     1
 64
     7
176
     1
 65
   257
176
     1
 75
     1
176
     1
175
     1
176
     1
 42
1.0
176
     1
 92
        8
176
     1
 66
     7
176
     1
 43
1.0
176
     1
 76
     1
176
     1
 77
     6
176
     1
 78
     2
176
     1
 67
     7
176
     1
 79
     5
176
     1
170
     0
176
     1
171
     0
176
     1
290
     0
176
     1
 93
        1
176
     1
 44
0.0
176
     1
173
     0
176
     1
  0
VISUALSTYLE
  5
36
102
{ACAD_REACTORS
330
2A
102
}
330
2A
100
AcDbVisualStyle
  2
Brighten
 70
    12
177
     2
291
     1
 71
     2
176
     1
 72
     2
176
     1
 73
     0
176
     1
 90
        0
176
     1
 40
-0.6
176
     1
 41
-30.0
176
     1
 62
     5
 63
     7
421
 16777215
176
     1
 74
     1
176
     1
 91
        4
176
     1
 64
     7
176
     1
 65
   257
176
     1
 75
     1
176
     1
175
     1
176
     1
 42
1.0
176
     1
 92
        8
176
     1
 66
     7
176
     1
 43
1.0
176
     1
 76
     1
176
     1
 77
     6
176
     1
 78
     2
176
     1
 67
     7
176
     1
 79
     5
176
     1
170
     0
176
     1
171
     0
176
     1
290
     0
176
     1
 93
        1
176
     1
 44
50.0
176
     1
173
     0
176
     1
  0
VISUALSTYLE
  5
3A
102
{ACAD_REACTORS
330
2A
102
}
330
2A
100
AcDbVisualStyle
  2
ColorChange
 70
    16
177
     2
291
     1
 71
     2
176
     1
 72
     2
176
     1
 73
     3
176
     1
 90
        0
176
     1
 40
-0.6
176
     1
 41
-30.0
176
     1
 62
     5
 63
     8
421
  8421504
176
     1
 74
     1
176
     1
 91
        4
176
     1
 64
     7
176
     1
 65
   257
176
     1
 75
     1
176
     1
175
     1
176
     1
 42
1.0
176
     1
 92
        8
176
     1
 66
     8
424
  8421504
176
     1
 43
1.0
176
     1
 76
     1
176
     1
 77
     6
176
     1
 78
     2
176
     1
 67
     7
176
     1
 79
     5
176
     1
170
     0
176
     1
171
     0
176
     1
290
     0
176
     1
 93
        1
176
     1
 44
0.0
176
     1
173
     0
176
     1
  0
VISUALSTYLE
  5
34
102
{ACAD_REACTORS
330
2A
102
}
330
2A
100
AcDbVisualStyle
  2
Conceptual
 70
     9
177
     2
291
     0
 71
     3
176
     1
 72
     2
176
     1
 73
     0
176
     1
 90
        0
176
     1
 40
-0.6
176
     1
 41
-30.0
176
     1
 62
     5
 63
     7
421
 16777215
176
     1
 74
     2
176
     1
 91
        2
176
     1
 64
     7
176
     1
 65
   257
176
     1
 75
     1
176
     1
175
     1
176
     1
 42
40.0
176
     1
 92
        8
176
     1
 66
     7
176
     1
 43
1.0
176
     1
 76
     1
176
     1
 77
     6
176
     1
 78
     2
176
     1
 67
     7
176
     1
 79
     3
176
     1
170
     0
176
     1
171
     0
176
     1
290
     0
176
     1
 93
        1
176
     1
 44
0.0
176
     1
173
     0
176
     1
  0
VISUALSTYLE
  5
35
102
{ACAD_REACTORS
330
2A
102
}
330
2A
100
AcDbVisualStyle
  2
Dim
 70
    11
177
     2
291
     1
 71
     2
176
     1
 72
     2
176
     1
 73
     0
176
     1
 90
        0
176
     1
 40
-0.6
176
     1
 41
-30.0
176
     1
 62
     5
 63
     7
421
 16777215
176
     1
 74
     1
176
     1
 91
        4
176
     1
 64
     7
176
     1
 65
   257
176
     1
 75
     1
176
     1
175
     1
176
     1
 42
1.0
176
     1
 92
        8
176
     1
 66
     7
176
     1
 43
1.0
176
     1
 76
     1
176
     1
 77
     6
176
     1
 78
     2
176
     1
 67
     7
176
     1
 79
     5
176
     1
170
     0
176
     1
171
     0
176
     1
290
     0
176
     1
 93
        1
176
     1
 44
-50.0
176
     1
173
     0
176
     1
  0
VISUALSTYLE
  5
39
102
{ACAD_REACTORS
330
2A
102
}
330
2A
100
AcDbVisualStyle
  2
Facepattern
 70
    15
177
     2
291
     1
 71
     2
176
     1
 72
     2
176
     1
 73
     0
176
     1
 90
        0
176
     1
 40
-0.6
176
     1
 41
-30.0
176
     1
 62
     5
 63
     7
421
 16777215
176
     1
 74
     1
176
     1
 91
        4
176
     1
 64
     7
176
     1
 65
   257
176
     1
 75
     1
176
     1
175
     1
176
     1
 42
1.0
176
     1
 92
        8
176
     1
 66
     7
176
     1
 43
1.0
176
     1
 76
     1
176
     1
 77
     6
176
     1
 78
     2
176
     1
 67
     7
176
     1
 79
     5
176
     1
170
     0
176
     1
171
     0
176
     1
290
     0
176
     1
 93
        1
176
     1
 44
0.0
176
     1
173
     0
176
     1
  0
VISUALSTYLE
  5
2B
102
{ACAD_REACTORS
330
2A
102
}
330
2A
100
AcDbVisualStyle
  2
Flat
 70
     0
177
     2
291
     1
 71
     2
176
     1
 72
     1
176
     1
 73
     1
176
     1
 90
        2
176
     1
 40
-0.6
176
     1
 41
30.0
176
     1
 62
     5
 63
     7
421
 16777215
176
     1
 74
     0
176
     1
 91
        4
176
     1
 64
     7
176
     1
 65
   257
176
     1
 75
     1
176
     1
175
     1
176
     1
 42
1.0
176
     1
 92
        8
176
     1
 66
     7
176
     1
 43
1.0
176
     1
 76
     1
176
     1
 77
     6
176
     1
 78
     2
176
     1
 67
     7
176
     1
 79
     5
176
     1
170
     0
176
     1
171
     0
176
     1
290
     0
176
     1
 93
       13
176
     1
 44
0.0
176
     1
173
     0
176
     1
  0
VISUALSTYLE
  5
2C
102
{ACAD_REACTORS
330
2A
102
}
330
2A
100
AcDbVisualStyle
  2
FlatWithEdges
 70
     1
177
     2
291
     1
 71
     2
176
     1
 72
     1
176
     1
 73
     1
176
     1
 90
        2
176
     1
 40
-0.6
176
     1
 41
30.0
176
     1
 62
     5
 63
     7
421
 16777215
176
     1
 74
     1
176
     1
 91
        4
176
     1
 64
     7
176
     1
 65
   257
176
     1
 75
     1
176
     1
175
     1
176
     1
 42
1.0
176
     1
 92
        0
176
     1
 66
   257
176
     1
 43
1.0
176
     1
 76
     1
176
     1
 77
     6
176
     1
 78
     2
176
     1
 67
     7
176
     1
 79
     5
176
     1
170
     0
176
     1
171
     0
176
     1
290
     0
176
     1
 93
       13
176
     1
 44
0.0
176
     1
173
     0
176
     1
  0
VISUALSTYLE
  5
2D
102
{ACAD_REACTORS
330
2A
102
}
330
2A
100
AcDbVisualStyle
  2
Gouraud
 70
     2
177
     2
291
     1
 71
     2
176
     1
 72
     2
176
     1
 73
     1
176
     1
 90
        2
176
     1
 40
-0.6
176
     1
 41
30.0
176
     1
 62
     5
 63
     7
421
 16777215
176
     1
 74
     0
176
     1
 91
        4
176
     1
 64
     7
176
     1
 65
   257
176
     1
 75
     1
176
     1
175
     1
176
     1
 42
1.0
176
     1
 92
        0
176
     1
 66
     7
176
     1
 43
1.0
176
     1
 76
     1
176
     1
 77
     6
176
     1
 78
     2
176
     1
 67
     7
176
     1
 79
     5
176
     1
170
     0
176
     1
171
     0
176
     1
290
     0
176
     1
 93
       13
176
     1
 44
0.0
176
     1
173
     0
176
     1
  0
VISUALSTYLE
  5
2E
102
{ACAD_REACTORS
330
2A
102
}
330
2A
100
AcDbVisualStyle
  2
GouraudWithEdges
 70
     3
177
     2
291
     1
 71
     2
176
     1
 72
     2
176
     1
 73
     1
176
     1
 90
        2
176
     1
 40
-0.6
176
     1
 41
30.0
176
     1
 62
     5
 63
     7
421
 16777215
176
     1
 74
     1
176
     1
 91
        4
176
     1
 64
     7
176
     1
 65
   257
176
     1
 75
     1
176
     1
175
     1
176
     1
 42
1.0
176
     1
 92
        0
176
     1
 66
   257
176
     1
 43
1.0
176
     1
 76
     1
176
     1
 77
     6
176
     1
 78
     2
176
     1
 67
     7
176
     1
 79
     5
176
     1
170
     0
176
     1
171
     0
176
     1
290
     0
176
     1
 93
       13
176
     1
 44
0.0
176
     1
173
     0
176
     1
  0
VISUALSTYLE
  5
38
102
{ACAD_REACTORS
330
2A
102
}
330
2A
100
AcDbVisualStyle
  2
Linepattern
 70
    14
177
     2
291
     1
 71
     2
176
     1
 72
     2
176
     1
 73
     0
176
     1
 90
        0
176
     1
 40
-0.6
176
     1
 41
-30.0
176
     1
 62
     5
 63
     7
421
 16777215
176
     1
 74
     1
176
     1
 91
        4
176
     1
 64
     7
176
     1
 65
   257
176
     1
 75
     7
176
     1
175
     7
176
     1
 42
1.0
176
     1
 92
        8
176
     1
 66
     7
176
     1
 43
1.0
176
     1
 76
     1
176
     1
 77
     6
176
     1
 78
     2
176
     1
 67
     7
176
     1
 79
     5
176
     1
170
     0
176
     1
171
     0
176
     1
290
     0
176
     1
 93
        1
176
     1
 44
0.0
176
     1
173
     0
176
     1
  0
VISUALSTYLE
  5
33
102
{ACAD_REACTORS
330
2A
102
}
330
2A
100
AcDbVisualStyle
  2
Realistic
 70
     8
177
     2
291
     0
 71
     2
176
     1
 72
     2
176
     1
 73
     0
176
     1
 90
        0
176
     1
 40
-0.6
176
     1
 41
-30.0
176
     1
 62
     5
 63
     7
421
 16777215
176
     1
 74
     1
176
     1
 91
        0
176
     1
 64
     7
176
     1
 65
   257
176
     1
 75
     1
176
     1
175
     1
176
     1
 42
1.0
176
     1
 92
        8
176
     1
 66
     8
424
  7895160
176
     1
 43
1.0
176
     1
 76
     1
176
     1
 77
     6
176
     1
 78
     2
176
     1
 67
     7
176
     1
 79
     5
176
     1
170
     0
176
     1
171
     0
176
     1
290
     0
176
     1
 93
       13
176
     1
 44
0.0
176
     1
173
     0
176
     1
  0
VISUALSTYLE
  5
37
102
{ACAD_REACTORS
330
2A
102
}
330
2A
100
AcDbVisualStyle
  2
Thicken
 70
    13
177
     2
291
     1
 71
     2
176
     1
 72
     2
176
     1
 73
     0
176
     1
 90
        0
176
     1
 40
-0.6
176
     1
 41
-30.0
176
     1
 62
     5
 63
     7
421
 16777215
176
     1
 74
     1
176
     1
 91
        4
176
     1
 64
     7
176
     1
 65
   257
176
     1
 75
     1
176
     1
175
     1
176
     1
 42
1.0
176
     1
 92
       12
176
     1
 66
     7
176
     1
 43
1.0
176
     1
 76
     1
176
     1
 77
     6
176
     1
 78
     2
176
     1
 67
     7
176
     1
 79
     5
176
     1
170
     0
176
     1
171
     0
176
     1
290
     0
176
     1
 93
        1
176
     1
 44
0.0
176
     1
173
     0
176
     1
  0
ENDSEC
  0
EOF
